Kent - Den Dda Vinkeln Chords & Tabs

 

Den Dda Vinkeln Chords & Tabs

Kent Chords & Tabs

Version: 1 Type: Tab 0 ratings
1 star 2 stars 3 stars 4 stars 5 stars
comments

Den Dda Vinkeln Tab

   
This is a great song by Kent, Swedens most popular rock bands, it's the correct version. 
a great song!

Intro:


 |Cm                  Dm Eb     |Ab         
               |
 |                              |                             |
e|----------------------------6-|-----------------------------|
B|4-------------------6--8------|1----------------------------|
G|5-------------------7--8------|---3-------0--------------7--|
D|------------------------------|------3----------------------| x2
A|3-------------------5--6------|-----------------------------|
E|------------------------------|-----------------------------|


        Cm    Bb/D   Eb    Ab
Jag var länge ensam, enda barnet
    Cm                   Eb               Abmaj7
Ett monster underst i en hembyggd våningssäng
       Cm           Bb/D   Eb     Ab
Och på håll såg jag ljusen dö i dimman
    Eb             Bb/D
Precis när mörkret tändes upp igen


 |Cm                  Bb Eb     |Abmaj7     
               |
 |                    /D        |                             |
e|----------------------------6-|-----------------------------|
B|4-------------------6--8------|1----------------------------|
G|5-------------------7--8------|---3-------0--------------7--|
D|------------------------------|------3----------------------|
A|3-------------------5--6------|-----------------------------|
E|------------------------------|-----------------------------|


        Cm      Bb/D    Eb   Abmaj7
Och jag såg dig springa över skaren
  Cm            Eb       Abmaj7
I jakten på din sagolika vy
       Cm            Bb/D    Eb        Abmaj7
Och du lärde mig att fullständigt försvinna
Eb        Bb/D          Abmaj7         Bb
In i dina tankar,i ditt huvud står jag fri


Ab         Cm    Bb
 Ge mig en vinterdrog
Eb              Cm
 Ge mig allt du har
Ab              Cm       Bb
 Kom nu, jag är kroniskt låg
Ab            Cm
 Bara mörkret hörs
Ab                 Cm        Bb
 I ditt öga var en storm jag såg
Eb          Cm
 Som sommarsnö
  Ab           Bb              Cm   Cmadd9
I döda vinkeln ser jag allt du gör


 |Cm      Bb      |Abmaj7  Eb      |Cm      
     |Abmaj7  Eb      |
 |                |                |                |                |
e|----------------|----------------|----------------|----------------|
B|1--------------/|7---------------|1--------------/|7---------------|
G|----------------|----------------|----------------|----------------|
D|----------------|----------------|----------------|----------------|
A|----------------|----------------|----------------|----------------|
E|----------------|----------------|----------------|----------------|
[ Tab from: http://www.guitartabs.cc/tabs/k/kent/den_dda_vinkeln_tab.html ]
 |Cm      Bb      |Abmaj7  Eb      |Cm      
     |Abmaj7  Eb      |
 |                |                |                |                |
e|----------------|----------------|----------------|----------------|
B|----------------|----------------|----------------|----------------|
G|--------------3-|----------------|--------------3-|----------------|
D|--------3-35-5--|5-------333-----|--------3-35-5--|5-------333-----|
A|3-35-566--------|-----------6-65-|3-35-566--------|-----------6-65-|
E|----------------|----------------|----------------|----------------|

 |Cm      Bb      |Abmaj7  Eb      |Cm      
     |Abmaj7  Eb      |
 |                |                |                |                |
e|----------------|-3--------------|----------------|-3--------------|
B|------4-3-----1-|-----434------1-|------4-3-----1-|-----434--------|
G|----------------|--------3----3-0|----------------|--------3-------|
D|----------------|----------------|----------------|----------------|
A|----------------|----------------|----------------|----------------|
E|----------------|----------------|----------------|----------------|


        Cm             Bb/D     Eb      Ab
Och där kommer dom jag ser dom mellan träden
Cm            Eb              Ab
Snälla kan du hjälpa mig att fly
      Cm          Bb/D   Eb     Ab
Deras ögon är som mareld över världen
    Eb            Bb/D         Ab             Bb
Jag kryper där i askan, fågel Fenix född som ny


Ab         Cm     Bb
 Ge mig en vinterdrog
Eb              Cm
 Ge mig allt du har
Ab              Cm     Bb
 Kom nu, jag är kroniskt låg
Ab            Cm
 Bara mörkret hörs
Ab                 Cm        Bb
 I ditt öga var en storm jag såg
Eb           Cm
 Blåsa sommarsnö
  Ab           Bb
I döda vinkeln ser jag allt du gör


 |Cm      Bb      |Abmaj7  Eb      |Cm      
     |Abmaj7  Eb      |
 |                |                |                |                |
e|----------------|-3--------------|----------------|-3--------------|
B|------4-3-----1-|-----434------1-|------4-3-----1-|-----434--------|
G|----------------|--------3----3-0|----------------|--------3-------|
D|----------------|----------------|----------------|----------------|
A|----------------|----------------|----------------|----------------|
E|----------------|----------------|----------------|----------------|


Ab         Cm    Bb
 Ge mig en vinterdrog
Eb            Cm
 Ge mig sommarsnö
Ab              Cm       Bb
 Kom nu, jag är kroniskt låg
Ab            Cm
 Bara mörkret hörs
Ab                 Cm        Bb
 I ditt öga dansar stormar små
Eb                 Cm
 Men det är du som för
  Ab           Bb
I döda vinkeln ser jag allt du gör


 |Cm      Bb      |Abmaj7  Eb      |Cm      
     |Abmaj7  Eb      |
 |                |                |                |                |
e|----------------|-3--------------|----------------|-3--------------|
B|------4-3-----1-|-----434------1-|------4-3-----1-|-----434------1-|
G|----------------|--------3----3-0|----------------|--------3----3-0|
D|----------------|----------------|----------------|----------------| Fade-out
A|3-------1-------|--------6-------|3-------1-------|--------6-------|
E|----------------|4---------------|----------------|4---------------|
Comments