Kent - 7 Chords & Tabs

 

7 Chords & Tabs

Kent Chords & Tabs

Version: 1 Type: Chords 0 ratings
1 star 2 stars 3 stars 4 stars 5 stars
comments

7 Chords

   
Ackord / 747 (albumversion - sv) 
Text: J. Berg 
Musik: J. Berg 
Skiva: Isola 
Uppdaterad: 020105 
Visa texten | Visa ackorden 




|n.c.  | 4x (bara trummor)

  (Bm)
eb -------------------
Bb -------------------
Gb --------0----------
Db ----0-------0---0--
Ab ------9---9---9---- 
Eb --7---------------- 4x

Vers:
    D                  A                  Bm                 Bm
eb -------------------|------------------|------------------|------------------|
Bb -------------------|------------------|------------------|------------------|
Gb --------0----------|-------0----------|-------0----------|-------0----------|
Db ----0-------0---0--|---0-------0---0--|---0-------0---0--|---0-------0---0--|
Ab ------9---9---9----|-----9---9---9----|-----9---9---9----|-----9---9---9----|
Eb -10----------------|-9----------------|-7----------------|-7----------------|

    G                  Em                 G                  A
eb -------------------|------------------|------------------|------------------|
Bb -------------------|------------------|------------------|------------------|
Gb --------0----------|-------0----------|-------0----------|---6---7---6---6--|
Db ----0-------0---0--|---0-------0---0--|---0-------0---0--|------------------|
Ab ------9---9---9----|-----9---9---9----|-----9---9---9----|------------------|
Eb -10----------------|-9----------------|-7----------------|-5---5---5---5----|
 
 

   D        A
  Tystnad
          Bm
  tunnel, avfart
           G             Em
  När taxametern slagits på
       G             A            D
  försvinner allt i regnet utan spår
A             Bm
  och som en viskning
          G        Em
  ser vi syner nu igen
       G              A          
  Det här är nåt som inte ens har hänt...

|D     |A     |Bm    |Bm    |
|G     |Em    |G     |A     |

    Syntslinga (fast här för gitarrtabulatur) 
eb --------17---------15-------------------------
Bb --15-14------15-14------15-14------15-14------
Gb -----------------------------16----------17--- x2

   
   D        A
  Tystnad
             Bm
  en rökfri viskning
           G               Em
  Det är exakt vad vi vill ha
       G           A                 D
  det luftkonditionerande ljudet av fart 
A                Bm
  Du är värd att dö för
            G           Em
  Ni kan skratta om ni vill
   G           A
  Håna oss vi rör oss ni står still...

|D     |A     |Bm    |Bm    |
|G     |Em    |G     |A     | 2x

    Syntslinga
eb -----------17------------15-----------------------------
Bb --14-15-14------14-15-14------14-15-14-----14-15-14-----
Gb ---------------------------------------16-----------17-- x2
[ Tab from: http://www.guitartabs.cc/tabs/k/kent/7_crd.html ]
eb -----------21-17------------19-17------------17-14------------15-14--
Bb --14-15-14---------14-15-14------------15---------------15-----------
Gb ------------------------------------16----16---------16----16-------- x2

   D       A
  Lyssnar
            Bm
  stel och fastspänd
             G           Em
  och när paniken bryter ut
   G
  ler du svagt
       A                D
  och viskar till mig, du
A             Bm
  är värd att dö för
           G                Em
  Men mot gummi, glas och metall
     G           A
  betyder ett mirakel inget alls...


    D                 |D
eb -------------------|-------------------
Bb -------------------|-------------------
Gb --------0----------|--------0----------
Db ----0-------0---0--|----0-------0---0--
Ab ------9---9---9----|------9---9---9----
Eb -10----------------|-10----------------

|E    |E    |Bm   |Bm   |E    |E    |

|G    |G    |A    |A    | 2x
|Bm   |Bm   |Bm   |Bm   | tab. som i introt dessa 4 takter.

|D    |A    |Bm   |Bm   |
|G    |Em   |G    |A    | båda raderna 14x


Kommentar: På skivan spelas låten nedstämd ett halvt tonsteg.

   
   Gitarr 1 outro:
eb|------------------------------------------------------------------
Bb|------------------------------------------------------------------
Gb|--9--7--6-7------------------------9--7--6-7----------------------
Db|-----------------11--9--7-9-----------------------11--9--7-9------
Ab|-------------9--------------------------------9-------------------
Eb|-----------------------------7--------------------------------7---

eb|------------------------------------------------------------------------
Bb|------------------------------------------------------------------------
Gb|--9--7--6-7------------------------9--7--6-7----------------------------
Db|-----------------11--9--7-9-----------------------11--9--7h9-7h9-(7-9-7-osv...)*
Ab|-------------9--------------------------------9-------------------------
Eb|-----------------------------7------------------------------------------
   *tonerna inom parantes spelas inte handgripligen, det är en ekoeffekt.

    Synthslinga
eb -----------21-17------------19-17------------17-14------------15-14--
Bb --14-15-14---------14-15-14------------15---------------15-----------
Gb ------------------------------------16----16---------16----16-------- 

eb --21-22-21-22-21-17---------19-17--------------17-14------------15-14--
Bb -----------------------------------------15---------------15-----------
Gb ----------------------------------18--16----16---------16----16-------- 4x 
 synten har paus i två vändor efter detta, sen spelar den samma sak igen till slutet


h = (hammer on) Slå an den första tonen, lägg sedan fingern på den andra
    utan att slå an den med plektrumet.


Efter tredje versen:
     E               Bm
eb|-------------------------------2--
Bb|-------------------------------3--
Gb|-------------------------------4-- 
Comments