Keno - Ohayou Chords & Tabs

 

Ohayou Chords & Tabs

Keno Chords & Tabs

Version: 2 Type: Tab 0 ratings
1 star 2 stars 3 stars 4 stars 5 stars
comments

Ohayou Tab

Song Title:      Ohayou
Sung by:         Keno
Series:          Hunter X Hunter
Transcribed by:  Flamer
E-Mail:          Flamerebirth@yahoo.com

NOTE: Pakinggan n’yo ang strumming, timing at kung ilang times ginamit ‘yung mga chords.
      Hi sa mga Friends ko ditto sa ‘min at sa lahat ng mga Friends ko.

INTRO (GUITAR 1)
|-----4--2-------|
|-----2----------|
|--2--4--2--2-1--|
|--2--2-----2-2--|
|-----------2-2--|
|-----2----------|

(GUITAR 2)
|--------------12--------------12------|--------------12-------------------------------|
|--10--12--10------10--12--10------10--|--10--12--10------10--10--12--10--9--10--9-----|
|--------------------------------------|--------------------------------------------9--|
|--------------------------------------|-----------------------------------------------|
|--------------------------------------|-----------------------------------------------|
|--------------------------------------|-----------------------------------------------|

VERSE
|--------2-----|
|--2-----3-----|
|--2-----2--1--|
|--2--------2--|
|-----4-----2--|
|-----2--------|

REFRAIN
|-----2-----------2--------|
|--5--3--5--3-----3--3-----|
|-----2-----------2-----1--|
|--6-----6--4--------4--2--|
|--3-----4--2--3-----2--2--|
|--------------1-----------|

 
CHORUS
|--------2---------|
|--2-----3--5-3----|
|--2-----2------1--|
|--2--------6-4-2--|
|-----4-----4-2-2--|
|-----2------------|
[ Tab from: http://www.guitartabs.cc/tabs/k/keno/ohayou_tab_ver_2.html ]
CHORUS 2
|--------2---------|
|--2-----3--5-3----|
|--2-----2------1--|
|--2--------6-4-2--|
|-----4-----4-2-2--|
|-----2------------|

CHORUS 3
|--------2------|-----|
|--2-----3--5-3-|-----|
|--2-----2------|--1--|
|--2--------6-4-|--2--|
|-----4-----4-2-|--2--|
|-----2---------|-----|

CHORUS 4
|--------2---------||-----|
|--2-----3--5-3----||--2--|
|--2-----2------1--||--2--|
|--2--------6-4-2--||--2--|
|-----4-----4-2-2--||-----|
|-----2------------||-----| 

 
FILL
|--3-----3-----|
|--3-----3-----|
|-----------1--|
|-----------2--|
|--2--4--2--2--|
|--3--2--3-----|

INSTRUMENTAL
|--3-----3-----|
|--3-----3-----|
|-----------1--|
|-----------2--|
|--2--4--2--2--|
|--3--2--3-----| 

 
BRIDGE
|--------------1-----|
|-----4-----3—-3-----|
|--1-----------2—-1--|
|--2--6-----4-----2--|
|--2--4--4--2-----2--|
|--------2-----------|

OUTRO (GUITAR 1)
|-----4--2-------|
|-----2----------|
|--2--4--2--2-1--|
|--2--2-----2-2--|
|-----------2-2--|
|-----2----------|

(GUITAR 2)
|--------------12--------------12------|--------------12-------------------------------|
|--10--12--10------10--12--10------10--|--10--12--10------10--10--12--10--9--10--9-----|
|--------------------------------------|--------------------------------------------9--|
|--------------------------------------|-----------------------------------------------|
|--------------------------------------|-----------------------------------------------|
|--------------------------------------|-----------------------------------------------|

Please Rate this!!!

NOTE: Hitomy, ingat ka palagi.


Comments