Kenny Wayne Shepherd - Kings Highway Chords & Tabs

 

Kings Highway Chords & Tabs

Kenny Wayne Shepherd Chords & Tabs

Version: 1 Type: Tab 0 ratings
1 star 2 stars 3 stars 4 stars 5 stars
comments

Kings Highway Tab

                            KENNY WAYNE SHEPHERD
                               KINGS HIGHWAY

STANDARD TUNING
EADGBe

intro
----------------------|
----------------------|
----------------------|
--x-x-x---------------|
--x-x-x---------------|
--x-x-x--0-6s0--------|

[ Tab from: http://www.guitartabs.cc/tabs/k/kenny_wayne_shepherd/kings_highway_tab.html ]
this is repeated throughout the whole song
------------------------------------|
------------------------------------|
----------------2-2-----------------|
---2-2----------2-2-----------------|
---2-2----------0-0-----------------|
---0-0-3b-hold------3b-hold---------|


this comes in while the above riff is played
--0-3-3-3-----------------|
----------2p0-------------|
--------------2p0---------|
--------------------------|
--------------------------|
--------------------------|

thats it
peace
Comments