Kenny Wayne Shepherd - Blue On Black Chords & Tabs

 

Blue On Black Chords & Tabs

Kenny Wayne Shepherd Chords & Tabs

Version: 2 Type: Tab

Blue On Black Tab

                        KENNY WAYNE SHEPHERD
                           BLUE ON BLACK


standard tuning
EADGBe


repeat many times
--------------------3-3-33-33-------------------3-3-33-33----|
-----3-33-3---------3-3-33-33----3-33-3---------3-3-33-33----|
-----2-22-2---------0-0-00-00----2-22-2---------0-0-00-00----|
--0--0-00-0---------x-x-xx-xx--0-0-00-0---------x-x-xx-xx----|
-------------0-2-3--3-2-22-22------------0-2-3--3-3-33-33----|
-------------------------------------------------------------|
[ Tab from: http://www.guitartabs.cc/tabs/k/kenny_wayne_shepherd/blue_on_black_tab_ver_2.html ]
chorus
--------------------3-3-33-33-------------------3-3-33-33----|
-----3-33-3---------3-3-33-33----3-33-3---------3-3-33-33----|
-----2-22-2---------0-0-00-00----2-22-2---------0-0-00-00----|
--0--0-00-0---------x-x-xx-xx--0-0-00-0---------x-x-xx-xx----|x2
-------------0-2-3--3-2-22-22------------0-2-3--3-3-33-33----|
-------------------------------------------------------------|

solo
--------------------------------------------------------------------------|
---------------------------------------15~-13-----------------------------|
--7-7-7-9b---12b-10-12p10------------------------12-10-12p10--------------|
--------------------------12-12-10---------------------------12-10h12-12--|
--------------------------------------------------------------------------|
--------------------------------------------------------------------------|

peace