Kenny Wayne Shepherd - Blue On Black Chords & Tabs

 

Blue On Black Chords & Tabs

Kenny Wayne Shepherd Chords & Tabs

Version: 1 Type: Bass Tab 0 ratings
1 star 2 stars 3 stars 4 stars 5 stars
comments

Blue On Black Bass Tab

Blue On Black - Kenny Wayne Shepherd

this song is played pretty quickly with some improv.

  verse riff
G|--------------------------|
D|-----------------5--------|
A|5--5---355-5--233-53--2---|
E|------5---5--5---------3--|
[ Tab from: http://www.guitartabs.cc/tabs/k/kenny_wayne_shepherd/blue_on_black_btab.html ]
  chorus riff (x3)           chorus end
G|--------------------------|-------------------|
D|--------------------------|-------------------|
A|5--5--35535-553--3--2-----|-------------------|
E|-----------------------3--|5-55-5-555-3-33-3--|


  solo end
G|------------------------------------------------------|
D|3--3---3-3-3-3-5--5---5-5-5-5-3--3---3-3-3-3-5--55-5--|
A|------3-3---3-3------5-5---5-5------3-3---3-3---------|
E|------------------------------------------------------|

tabbed by Achilles (blue_sincere@hotmail.com)
Comments