Kenny Chesney - Who Youd Be Today Chords & Tabs

 

Who Youd Be Today Chords & Tabs

Kenny Chesney Chords & Tabs

Version: 2 Type: Tab

Who Youd Be Today Tab

Intro-
E--5--5--5-3-2----5--5--5-3-2-------------0----0------------0-----0----|
B--3--3--3-----3--3--3--3-----3-----3-3-----3----3-----3-3----3-----3--|
G--2--2--2--------2--2--2---------0-----0-----0------0-----0----0------|
D--0--------------0----------------------------------------------------|
A----------------------------------------------------------------------|
E--------------------------------3-----------------3-------------------|
(Repeat)


E-----0----------0---|
B-----3----------3---|
G-----2----------0---|
D----------------0---|
A--------------------|
E----------------3---|
Just listen to the song and fit this in, it works.

Tabbed by Preston L.
[ Tab from: http://www.guitartabs.cc/tabs/k/kenny_chesney/who_youd_be_today_tab_ver_2.html ]