Kenny Chesney - No Shoes No Shirt No Problem Chords & Tabs

 

No Shoes No Shirt No Problem Chords & Tabs

Kenny Chesney Chords & Tabs

Version: 1 Type: Tab 0 ratings
1 star 2 stars 3 stars 4 stars 5 stars
comments

No Shoes No Shirt No Problem Tab

		    no shoes no shirt no problem - kenny chesney
-------------------------------------------------------------------------------
Tabbed by:jason
Email:jd444@cox.net

Tuning:standard

e|--6/7-6-5-----------------------0--------------------------------------3--|
B|-------------2/3-2-1-0------2/3-3-2/3-0------------------3-------3-3/5----|
G|--6/7-6-5----3/4-3-2-0------3/4---3/4-0------------0-3/4---0-3/4----------|
D|------------------------------------------2-0--0-2------------------------|
A|--------------------------------------------------------------------------|
E|--------------------------------------------------------------------------|

e|-3---2-3/5-3--3-2--6/7-6-5------------------------------------------------|
B|----------------------------2/3-2-1-0-------------------------------------|
G|-------------------6/7-6-5--3/4-3-2-0-------------------------------------|
D|--------------------------------------------------------------------------|
A|--------------------------------------------------------------------------|
E|--------------------------------------------------------------------------|
[ Tab from: http://www.guitartabs.cc/tabs/k/kenny_chesney/no_shoes_no_shirt_no_problem_tab.html ]
e|-------------0----------------------------6/7--8--10--8-6/7---------------|
B|--------2/3--3--2/3--------------------8---------------------8------------|
G|-----0--3/4-----3/4--0-----0-----7-9-7----6/7-------------------7-7h9-7h9-|
D|-0h2-------------------0-2------------------------------------------------|
A|--------------------------------------------------------------------------|
E|--------------------------------------------------------------------------|

e|-----------------7-10-8-7-------------------------------------------------|
B|---------------8----------10-8-7------------------------------------------|
G|--7-----7--7h9--------------------9-7-7-9-7------7------------------------|
D|---------------------------------------------9bh---9r--7-7-7--7-----------|
A|--------------------------------------------------------9--9b-9b----------|
E|--------------------------------------------------------------------------|

e|--------------------------------------------------------------------------|
B|--------------------------------------------------------------------------|
G|--7/9/7-------------------FIDDLE -->--------------------------------------|
D|----------9/7--5----------------------------------------------------------|
A|------------------7-------------------------------------------------------|
E|--------------------------------------------------------------------------|
Comments