Kenna - Hell Bent Chords & Tabs

 

Hell Bent Chords & Tabs

Kenna Chords & Tabs

Version: 2 Type: Tab 0 ratings
1 star 2 stars 3 stars 4 stars 5 stars
comments

Hell Bent Tab

transcription by Jason C
e-mail me comments or questions:  PrettyHateMachine089@earthlink.net
(if you use this on your site please gimme credit)


Kenna - Hell Bent





Intro
"Am I the king?"

e|---------------------------------------------------------------|
B|---------------------------------------------------------------|
G|---------------------------------------------------------------|
D|---11--9-----7-----9--11--------11--9--------------------------|
A|9---------9-----9-------------------------9--7--12--11---------| repeat 8x
E|----------------------------10--------10-----------------------| 


"When I am hell bent... My walls are closing in"

e|---------------------------------------------------------------|
B|---------------------------------------------------------------|
G|---7--------7------6--------6-------------------------7--------|
D|---------9---------------7--------9-----6--9----9---------9----|
A|------9---------------7--------------7-------------7-----------|
E|---------------------------------------------------------------|


e|--------------------------------------------------------------------------------------------|
B|--------------------------------------------------------------------------------------------|
G|----7-------7------6--------6---------------------------------------------------------------|
D|---------9---------------7--------9-----6--9----9-----6--9-----11-------------11------------|
A|------9---------------7--------------7-------------7---------------8--11--8-------8--11--8--|
E|--------------------------------------------------------------------------------------------|



"Controlling me..." part

here are chords:

e|-----------------------------------------|
B|-----------------------------------------|
G|--7-7-7---9---11-11-11---9---7-7-7-------| 
D|--7-7-7---9---11-11-11---9---7-5-5-------| listen and figure it out
A|--5-5-5---7---9--9--9----7---5-5-5-------|
E|-----------------------------------------|


here is a tiny piano riff played over the chords (in beat with "controlling me"):


e|---------------------|
B|---------------------|
G|---------------------|
D|---14-14---12--11----|
A|---------------------|
E|---------------------|



"Am I awake..."

e|---------------------------------------------------------------|
B|---------------------------------------------------------------|
G|---------------------------------------------------------------|
D|---11--9-----7-----9--11--------11--9--------------------------|
A|9---------9-----9-------------------------9--7--12--11---------| repeat 4x
E|----------------------------10--------10-----------------------| 

"All is hell bent...  My walls are closing in"

e|---------------------------------------------------------------|
B|---------------------------------------------------------------|
G|---7--------7------6--------6-------------------------7--------|
D|---------9---------------7--------9-----6--9----9---------9----|
A|------9---------------7--------------7-------------7-----------|
E|---------------------------------------------------------------|


e|---------------------------------------------------------------|
B|---------------------------------------------------------------|
G|----7-------7------6--------6----------------------------------|
D|---------9---------------7--------9-----6--9----9-----6--9-----|
A|------9---------------7--------------7-------------7-----------|
E|---------------------------------------------------------------|


"I feel them closing..."
[ Tab from: http://www.guitartabs.cc/tabs/k/kenna/hell_bent_tab_ver_2.html ]
e|---------------------------------------------------------------|
B|---------------------------------------------------------------|
G|---6-------6-----10--------10-----11-------------11------------|
D|--------7---------------11-----------12----12-------12----12---|
A|-----7--------------12------------------12------------12-------|
E|---------------------------------------------------------------|


e|---------------------------------------------------------------|
B|---------------------------------------------------------------|
G|---10-------------10--------------10-------------10------------|
D|------12----12-------12----12--------12----12-------12----12---|
A|---------12-------------12--------------13-------------13------|
E|---------------------------------------------------------------|


Then back to the chord progression...

"Conrtrolling Me..."

e|-----------------------------------------|
B|-----------------------------------------|
G|--7-7-7---9---11-11-11---9---7-7-7-------| 
D|--7-7-7---9---11-11-11---9---7-5-5-------| 
A|--5-5-5---7---9--9--9----7---5-5-5-------|
E|-----------------------------------------|

"Naked... Broken... My world crumbling"

e|--------------------------------------------|
B|--------------------------------------------|
G|---9--7--9--7--3--2--7--9-------------------|
D|---9--7--9--7--3--2--7--9-------------------|
A|---7--5--7--5--1--0--5--7-------------------|
E|--------------------------------------------|



Then there's a synth riff for a while...



Then it's back to the chords and don't forget the little piano riff

"Aaahh... Controlling Me..."

e|-----------------------------------------|
B|-----------------------------------------|
G|--7-7-7---9---11-11-11---9---7-7-7-------| 
D|--7-7-7---9---11-11-11---9---7-5-5-------| 
A|--5-5-5---7---9--9--9----7---5-5-5-------|
E|-----------------------------------------|


"Hell Bent... my walls are closing in... "

e|---------------------------------------------------------------|
B|---------------------------------------------------------------|
G|---7--------7------6--------6-------------------------7--------|
D|---------9---------------7--------9-----6--9----9---------9----|
A|------9---------------7--------------7-------------7-----------|
E|---------------------------------------------------------------|


e|---------------------------------------------------------------|
B|---------------------------------------------------------------|
G|----7-------7------6--------6----------------------------------|
D|---------9---------------7--------9-----6--9----9-----6--9-----|
A|------9---------------7--------------7-------------7-----------|
E|---------------------------------------------------------------|



Then after "My walls are closing In" it finishes with:


e|---------------------------------------------------------------|
B|---------------------------------------------------------------|
G|---6-------6-----10--------10-----11-------------11------------|
D|--------7---------------11-----------12----12-------12----12---|
A|-----7--------------12------------------12------------12-------|
E|---------------------------------------------------------------|


e|---------------------------------------------------------------|
B|---------------------------------------------------------------|
G|---10-------------10--------------10--------------10-----------|
D|------12----12-------12----12--------12----12--------12--------|
A|---------12-------------12--------------13--------------13-----|
E|---------------------------------------------------------------|


And that's it!

If you find anything wrong tell me, it's a hard song to tab.
Comments