Kelly R - Fiesta Chords & Tabs

 

Fiesta Chords & Tabs

Kelly R Chords & Tabs

Version: 1 Type: Tab 0 ratings
1 star 2 stars 3 stars 4 stars 5 stars
comments

Fiesta Tab

   
Song Title: Fiesta
Artist:R. Kelly, Jay-Z
Tabbed By: Filipine Helu

Main Riff:
e:--8p7p5-------:
B:-8------------:
G:--------------:
D:--------------:
A:--------------:
E:--------------:

Other Parts:
[ Tab from: http://www.guitartabs.cc/tabs/k/kelly_r/fiesta_tab.html ]
Am Riff:
e:----5-----:
B:----5-----:
G:----5-----:
D:----------:
A:--0-------:
E:----------:

Dm Riff:
e:----5-----:
B:----6-----:
G:----7-----:
D:--0-------:
A:----------:
E:----------:

* These are the only parts through the whole song, you should
listen to figure out the timing and when to do which riffs.
Once you figure it out, its pretty easy play and fun as well.
Have fun
Comments