Kelly Clarkson - You Found Me Chords & Tabs

 

You Found Me Chords & Tabs

Kelly Clarkson Chords & Tabs

Version: 1 Type: Tab 0 ratings
1 star 2 stars 3 stars 4 stars 5 stars
comments

You Found Me Tab

   
----------------------------------------------------------------------------
			     You Found Me - Kelly Clarkson
----------------------------------------------------------------------------
Album : Breakaway
Track : 09

Tabbed by: Fweeky 
Email: freaky_weekender@hotmail.com

Tuning: standard

intro :
e|-----------0--------------0--------------0--------------0-----------0------|
B|--------4-----4--------4-----4--------------0--------------0-----------4---|
G|--------------------------------------3--------3---------------------------|
D|-----6--------------4--------------4-----------------2-----------4---------|
A|--4--------------2--------------------------------0-----------2------------|
E|--------------------------------2------------------------------------------|

verse:
e|-----------0--------------0--------------0--------------0-----------0------|
B|--------4-----4--------4-----4--------------0--------------0-----------4---|
G|--------------------------------------3--------3---------------------------|
D|-----6--------------4--------------4-----------------2-----------4---------|
A|--4--------------2--------------------------------0-----------2------------|
E|--------------------------------2------------------------------------------|
Is this a dream? If it is, Please don't wake me from this high

e|-----------0--------------0--------------0--------------0-----------0------|
B|--------4-----4--------4-----4--------------0--------------0-----------4---|
G|--------------------------------------3--------3---------------------------|
D|-----6--------------4--------------4-----------------2-----------4---------|
A|--4--------------2--------------------------------0-----------2------------|
E|--------------------------------2------------------------------------------|
I've become comfortably numb, Until you opened up my eyes

     A    B    A    B
e|--------1---------1-----|
B|---2----4----2----4-----|
G|---2----4----2----4-----|
D|---2----4----2----4-----|
A|--------1---------1-----|
E|------------------------|
To what it's like When everything's right I can't believe

CHORUS:

C#m    B
You found me
E               A
When no one else was lookin'
C#m        B      E           B    
How did you know just where I would be?
C#m     B
Yeah, you broke through
E          A  
All of my confusion
C#m        B
The ups and the downs
E          B
And you still didn't leave
F#                         A       B
I guess that you saw what nobody could see
[ Tab from: http://www.guitartabs.cc/tabs/k/kelly_clarkson/you_found_me_tab.html ]
e|-----------0--------------0--------------0--------------0-----------0------|
B|--------4-----4--------4-----4--------------0--------------0-----------4---|
G|--------------------------------------3--------3---------------------------|
D|-----6--------------4--------------4-----------------2-----------4---------|
A|--4--------------2--------------------------------0-----------2------------|
E|--------------------------------2------------------------------------------|
     You found me                                     You found me

2nd verse:
e|-----------0--------------0--------------0--------------0-----------0------|
B|--------4-----4--------4-----4--------------0--------------0-----------4---|
G|--------------------------------------3--------3---------------------------|
D|-----6--------------4--------------4-----------------2-----------4---------|
A|--4--------------2--------------------------------0-----------2------------|
E|--------------------------------2------------------------------------------|
So, here we are That's pretty far When you think of where we've been

e|-----------0--------------0--------------0--------------0-----------0------|
B|--------4-----4--------4-----4--------------0--------------0-----------4---|
G|--------------------------------------3--------3---------------------------|
D|-----6--------------4--------------4-----------------2-----------4---------|
A|--4--------------2--------------------------------0-----------2------------|
E|--------------------------------2------------------------------------------|
No going back I'm fading out All that has faded me within

    A    B    A    B
e|--------1---------1-----|
B|---2----4----2----4-----|
G|---2----4----2----4-----|
D|---2----4----2----4-----|
A|--------1---------1-----|
E|------------------------|
You're by my side Now everything's fine I can't believe..

CHORUS:

C#m    B
You found me
E               A
When no one else was lookin'
C#m        B      E           B    
How did you know just where I would be?
C#m     B
Yeah, you broke through
E          A  
All of my confusion
C#m        B
The ups and the downs
E          B
And you still didn't leave
F#                         A       B
I guess that you saw what nobody could see
C#m        A
You found me
E          B
You found me

C#m           A
And I was hiding
E
'Til you came along
B
And showed me where I belong

Repeat CHORUS til end...


============================================================================
Comments