Kelly Clarkson - Miss Independent Chords & Tabs

 

Miss Independent Chords & Tabs

Kelly Clarkson Chords & Tabs

Version: 2 Type: Tab 0 ratings
1 star 2 stars 3 stars 4 stars 5 stars
comments

Miss Independent Tab

   
--------------------------------------------------------------------------
	         MISS INDEPENDENT - Kelly Clarkson
--------------------------------------------------------------------------

Tabbed by: Serial_X
Email: nothing_fallen@hotmail.com

Tuning: Standard - EADGBe

I tabbed this with the help of the Sessions@AOL video, i couldn't really get
the high strummed notes in the main riff correct, it looks like they're just
barring the 12th fret and strumming, kinda like funky 80's style. There are
more parts to this song but this is just the bare basics. Listen to the song
and put everything into place, it's not that hard.

Intro/Verse Riff 1
e|-------------------(12-12-12)-------------------------------------------|
B|-------------------(12-12-12)-------------------------------------------|
G|-------------------(12-12-12)-< not sure if that's correct--------------|
D|-------------------(12-12-12)-------------------------------------------|
A|-----6-7-8/9-------(12-12-12)-------------------------------------------|
E|---7---------7----------------------------------------------------------|
[ Tab from: http://www.guitartabs.cc/tabs/k/kelly_clarkson/miss_independent_tab_ver_2.html ]
Verse Riff 2
e|-------------------(12-12-12)-------------------------------------------|
B|-------------------(12-12-12)-------------------------------------------|
G|-------------------(12-12-12)-< again, not sure if it's correct---------|
D|-----6-7-8/9-------(12-12-12)-------------------------------------------|
A|---7---------7-----(12-12-12)-------------------------------------------|
E|------------------------------------------------------------------------|

Chorus - play twice   
e|------------------------------------------------------------------------|
B|------------------------------------------------------------------------|
G|-------7-7--------------------7-7---------------------------------------|
D|--9-9--7-7--2-2--5-5-7-7-9-9--7-7--5-5--6-6-7-7-------------------------|
A|--9-9--5-5--2-2--5-5-7-7-9-9--5-5--5-5--6-6-7-7-------------------------|
E|--7-7-------0-0--3-3-5-5-7-7-------3-3--4-4-5-5-------------------------|

Bridge
e|------------------------------------------------------------------------|
B|------------------------------------------------------------------------|
G|--4-----------7-----------4-----------7---------------------------------|
D|--4-----5-----7-----4-----4-----5-----7-----4---------------------------|
A|--2-----5-----5-----4-----2-----5-----5-----4---------------------------|
E|--------3-----------2-----------3-----------2---------------------------|


| /  slide up
| \  slide down
| h  hammer-on
| p  pull-off
| ~  vibrato
| +  harmonic
| x  Mute note
===========================================================================
Comments