Kelly Clarkson - Behind These Hazel Eyes Chords & Tabs

 

Behind These Hazel Eyes Chords & Tabs

Kelly Clarkson Chords & Tabs

Version: 4 Type: Tab 0 ratings
1 star 2 stars 3 stars 4 stars 5 stars
comments

Behind These Hazel Eyes Tab

   
Hey, I saw a tab up for this song, and it was pretty close, but the verse was off, and
stuff, so this is how you can play the entire song with just one guitar. This is a great
song; Kelly's newest single. This tab is based on the live performance on mtv.com. If
you have any problems, go to that website and check out the performance; it should help
you with timing, etc. Hope this tab works out for you, I think it's 100% accurate!

Capo 2 (everything relative to capo)

Intro:
(2x)
-------------------0-------------------------------------------------|
-7----8-------8--------8---------8--------------3--------------3-----|
----------7-----------------7--------7s4----2--------2------2-----2--|
---------------------------------------------------------4-----------|
---------------------------------------------------------------------|
---------------------------------------------------------------------|

Em   C9   G/B    D  (2x)

Verse:

--------------------------------------------------------|
--------------------------------------------------------|
--------0---------0----------------0---------0----------|    (4x)
----0------0---------0----------0-----0---4-----4-------|    or once per
---------------------------------------------------5----|    line below
-0-------------3--------3---0---------------------------|
[ Tab from: http://www.guitartabs.cc/tabs/k/kelly_clarkson/behind_these_hazel_eyes_tab_ver_4.html ]
Seems like just yesterday you were a part of me
I used to stand so tall, I used to be so strong.
Your arms around me tight, everything felt so right.
Unbreakable, like nothing could go wrong.

Pre-Chorus:
C5                   G5                 C5
Now I can't breathe, now I can't sleep, I'm barely hanging on

Chorus:
       Em      C9        G/B        D
Here I am once again I'm torn into pieces
       Em            C9            G/B               D
Can't deny it can't pretend Just thought you were the one
       Em          C9               G/B(let it ring-------)    Em  C9
Broken up, deep inside, but you won't get to see the tears I've cried
   G/B             D
Behind these hazel eyes

Verse 2 follows same picking pattern as Verse 1:
I told you everything, opened up and let you in
You made me feel alright for once in my life
Now all that's left of me is what I pretend to be
So together but so broken up inside

Pre-Chorus

Chorus

Bridge:
Em                      G         Em                   G
Swallow me then spit me out, for hating you I blame myself
Em                      G
Seeing you it kills me now
     C2               C5    D5
No I don't cry on the outside
Intro tab one and a half times      D
anymore, anymore                  yeah

Chorus (2x)

Em (x22000)
D (xx0232)
G (320033)
C9 (x320030)
G/B (x20033)
C2 (x32000)
C5 (x35500)
D5 (x57700)
G5 (355000)
Comments