Keller Williams - Base Loup Chords & Tabs

 

Base Loup Chords & Tabs

Keller Williams Chords & Tabs

Version: 1 Type: Tab 0 ratings
1 star 2 stars 3 stars 4 stars 5 stars
comments

Base Loup Tab

Artist - Keller Williams
Song - Base Loup

e|-----------------------------------------------------------|
B|-----------------------------------------------------------|
G|-----------------------------------------------------------|
D|-----------------------------------------------------------|
A|------------------------3----------------------------------|
E|--0^3^5-5-5-0^3^5-5-5-5---5-5-5-5-5-0^3^5-5-5-5-0^3^5------|

e|-----------------------------------------------------------|
B|-----------------------------------------------------------|
G|-----------------------------------------------------------|
D|------------------------3----------------------------------|
A|--0^3^5-5-5-0^3^5-5-5-5---5-5-5-0^3^5-5-5-0^3^5------------|
E|-----------------------------------------------------------|
[ Tab from: http://www.guitartabs.cc/tabs/k/keller_williams/base_loup_tab.html ]
e|--x----------------------------------------------------------------------------------|
B|--x----------------------------------------------------------------------------------|
G|--x----------------------------------------------------------------------------------|
D|--x-------0^2^0-------0^2^0-0^2^0----------------------------------------------------|
A|--2-2-0^2------2-2-0^2-----2-----2----------------------3----------------------------|
E|--0-0----------0-0----------------0^3^5-5-5-0^3^5-5-5-5---5-5-5-5-5-0^3^5-5-5-5-0^3^5|


e|-------------------------------------------------------------|
B|-------------------------------------------------------------|
G|-------------------------------------------------------------|
D|-----------9-----9-----9-----9-----7-----7-----7-----7-------| x2
A|-------------------------------------------------------------|
E|--3/----7-----7-----7-----7-----9-----9-----9-----9----------|



e|------------|
B|--12----10--|
G|--11-----9--|
D|--12----10--|
A|---9-----8--|
E|------------|

e|--x7----x7------------x12-------x5--------x7----x7-----------x12---x7---x5---x9--|
B|--x7------x7---x7-----x12-------x5--------x7------x7--x7-----x12---x7---x5---x9--|
G|--x7--------x7--------x12-------x5--------x7--------x7-------x12---x7---x5---x9--|
D|--x7------------------x12-------x5--------x7-----------------x12---x7---x5---x9--|
A|--x7------------------x12-------x5--------x7-----------------x12---x7---x5---x9--|
E|--x7------------------x12-------x5--------x7-----------------x12---x7---x5---x9--|
Comments