Keith Urban - Youll Think Of Me Chords & Tabs

 

Youll Think Of Me Chords & Tabs

Keith Urban Chords & Tabs

Version: 2 Type: Tab 0 ratings
1 star 2 stars 3 stars 4 stars 5 stars
comments

Youll Think Of Me Tab

------------SONG NAME-You'll Think of me - Band Name-Keith Urban------------
----------------------------------------------------------------------------
Tabbed by: Jeremy Heninger 
Email: hhstennis_playa03@yahoo.com

Tuning: Standard (capo on II fret)
I threw a sort of bass line in because the guitar part alone sounds a little awkward without it
so it's a combination of the acoustic guitar and the bass guitar from the intro.


[ Tab from: http://www.guitartabs.cc/tabs/k/keith_urban/youll_think_of_me_tab_ver_2.html ]
e|--------3~----------------0h2-3p2p0----------|
B|----------3~-------------3---------3~--------|
G|-----0------------------2----------------2h4-|
D|----0-0----------------0---------------------|
A|---------------0h2---------------------0-----|
E|-3~----------3-----0~------------------------|

e|--------0~--------------3--------------------|
B|----------0~-------------1-------------------|
G|-----0---------------0-----------0-----------|
D|----2-2-------------2-2------0h2~------------|
A|-------------------3-------3-----------------|
E|-0~-----------0h2~-----------------0---------|
Comments