Keith Urban - These Are The Days Chords & Tabs

 

These Are The Days Chords & Tabs

Keith Urban Chords & Tabs

Version: 1 Type: Tab 0 ratings
1 star 2 stars 3 stars 4 stars 5 stars
comments

These Are The Days Tab

   
This is "These Are The Days" from Be Here. This song also uses a similar riff to Day Go
By and is also played at the begining of Days Go By when performing live...anyways...
This is good stuff, here we go!

Capo on the 7th fret to make sure its in the right Key...I capo on the 5th fret cuz I
can't sing as high as Keith lol...

All fret numbers are relative to the Capo...


Intro Riff (This riff is played most of the way through the song)
[ Tab from: http://www.guitartabs.cc/tabs/k/keith_urban/these_are_the_days_tab.html ]
       D                       G
e|--------------------------------------------------------|
B|--------------------------------------3-----------------|
G|--------------0---4p2p0------------0--------------------|
D|-----------0--------------2-----2-----------------------|
A|--------2--------------------3--------------------------|
E|-----3--------------------------------------------------|

Ending Riff (Riff from Days Go By, starts on "So take 'em by the hand...")
       D              G
e|--------------------0h3-3--0h3-3-------------|
B|-----3--3-3--3-3-3--3-3-3--3-3-3-------------|
G|-----0--0h2--4p2p0--0-0-0--0-0-0-------------|
D|-----0--0-0--0-0-0--2-2-2--2-2-2-------------|
A|-----2--2-----------3-3-3--3-3-3-------------|
E|-----3--3------------------------------------|

Do be honest Im not to sure about the hammer ons and pull offs...you can add them in if
you want...cuz they sorta sound right...or you can just play it without them!

This song is also played on banjo so if you got one of them you can add that in
there...that's why it's based around D! Anyway...enjoy my friends :)
Comments