Keith Urban - Days Go By Chords & Tabs

 

Days Go By Chords & Tabs

Keith Urban Chords & Tabs

Version: 2 Type: Tab 0 ratings
1 star 2 stars 3 stars 4 stars 5 stars
comments

Days Go By Tab

-------------------------------------------------------------------------------
			     SONG NAME - Band Name
-------------------------------------------------------------------------------
Tabbed by:Jeremy Heninger	
Email:hhstennis_playa03@yahoo.com
[ Tab from: http://www.guitartabs.cc/tabs/k/keith_urban/days_go_by_tab_ver_2.html ]
Tuning:standard (capo on 7th fret), acoustic guitar
all chords and notes relative to capo on 7th
Of course this is not 100% accurate because 
Keith is a stud and there are a 
lot of hits and pull-offs that are difficult 
to hear, but it is closer than 
anyone else and plus you can add your own 
little ditties wherever you want.
The places where it says rake is really just 
playing the chord but slowly 
so I thought rake suited it better.
e|---------------------------------------|
B|-3---3-3-3-3---------------------------|
G|-0h2-2-4-2-0-0---------0~---------0~---|
D|-0-----------2-0---0h2----0---0h2------|
A|-x----------------3----------3---------|
E|-3---------------x----------x----------|
                   |rake|     |rake|
e|---------------------------------------|
B|-3---3-3-3-----------------------------|
G|-0h2-2-4-0h2p0-0------0~---------------|
D|-0-------------2-0---2-----------------|
A|-x------------------3------------------|
E|-3-----------------x-------------------|
                     |rake|
Band enters:
these chords are played on a banjo it 
but its sounds good acoustic too.
Play this a few times  
e|---------------------------------------|
B|-3---3---333--3-3----------------------|
G|-2---2---420--0-0------0~-----0~-------|
D|-0---0---000--2-0--0h2----0h2----------|
A|-x---x---xxx--x-x--3------3------------|
E|-3---3---333--3-3--x------x------------|
Play this little ditty just before he 
begins singing
e|---------------------------------------|
B|-3---3---33-----3-3--------------------|
G|-2---2---40h2p0-0-0------0~-----0~-----|
D|-0---0---00-----2-0--0h2----0h2--------|
A|-x---x---xx-----x-x--3------3----------|
E|-3---3---33-----3-3--x------x----------|
That's it, enjoy and please rate it!
Peace out
Comments