Keith Urban - Days Go By Chords & Tabs

 

Days Go By Chords & Tabs

Keith Urban Chords & Tabs

Version: 1 Type: Tab 0 ratings
1 star 2 stars 3 stars 4 stars 5 stars
comments

Days Go By Tab

x--3--3--5-----------3--3--5-----------5--5--7---------------------|
x---8/3-----2/3\2----2--2--3---3-5-7-9-----------------------------|
x--1--3--1-------------------1---------3--3--5---------------------|
x-----------------2h3p2--------------------------------------------|
x--------------------------1-----------1-----3---------------------|
x-------------7---------1-------1-1-1------------------------------|

[ Tab from: http://www.guitartabs.cc/tabs/k/keith_urban/days_go_by_tab.html ]
x--3--3--5-----------3--3--5-----------5--5--7---------------------|
x---8/3-----2/3\2----2--2--3---3-5-7-9-----------------------------|
x--1--3--1-------------------1---------3--3--5---------------------|
x-----------------2h3p2--------------------------------------------|
x--------------------------1-----------1-----3---------------------|
x-------------7---------1-------1-1-1------------------------------|

[ Tab from: http://www.guitartabs.cc/tabs/k/keith_urban/days_go_by_tab.html ]x--3--3--5-----------3--3--5-----------5--5--7---------------------|
x---8/3-----2/3\2----2--2--3---3-5-7-9-----------------------------|
x--1--3--1-------------------1---------3--3--5---------------------|
x-----------------2h3p2--------------------------------------------|
x--------------------------1-----------1-----3---------------------|
x-------------7---------1-------1-1-1------------------------------|

[ Tab from: http://www.guitartabs.cc/tabs/k/keith_urban/days_go_by_tab.html ]any comments accepted


thanks
Comments