Keith Martin - Now And Forever Chords & Tabs

 

Now And Forever Chords & Tabs

Keith Martin Chords & Tabs

Version: 1 Type: Tab

Now And Forever Tab

  Solo: Pakinggan nio n lng ung music para makuha nio ung timing!!!!
  
  
  e|---------------|--------------------------|
  B|---------------|5-3-----------------------|
  G|----------2-4-4|----5-4-5---5-4-----------|
  D|-5--5-4-5------|----------------5--0-5h7-7|
  A|---------------|--------------------------|
  E|---------------|--------------------------|

  e|---------------3-----2-2h3-0-7|
  B|------------------------------|
  G|---------5-4-5---4-2----------|
  D|-7-5-4-5----------------------|
  A|------------------------------|
  E|------------------------------|
[ Tab from: http://www.guitartabs.cc/tabs/k/keith_martin/now_and_forever_tab.html ]
  e|-7h8-10-8-7-5-|5-6-5-4-4h5----|--------4-5-7-5-4-5|
  B|--------------|------------5-0|----5-7------------|
  G|--------------|---------------|5-7----------------|
  D|--------------|---------------|-------------------|
  A|--------------|---------------|-------------------|
  E|--------------|---------------|-------------------|

Plss rate nio poh e2!!!!Pinaghirapan ko po 2.....Hi nga pala dyan sa mga friends ko
sa school(san juan national high school).Kamusta na rin pala ung mga kabanda ko dyan
ceris,arguz,jimboy,jv(black rain).Sana poh magustuhan nio 2!!rate nio poh and comment
nio na rin! :b 
  
dennis_sensui_021@yahoo.com