Keith Martin - Because Of You Chords & Tabs

 

Because Of You Chords & Tabs

Keith Martin Chords & Tabs

Version: 1 Type: Tab 0 ratings
1 star 2 stars 3 stars 4 stars 5 stars
comments

Because Of You Tab

   
Artist : Keith Martin
Song   : Because of You
Transcribed by: Harris Viado


Intro A. (Optional)
|-----3-2-0-----------0--------------0--0----------------|
|----2---------3---3-3-3------2-----0--0----3---3---3-2--|
|---3---------4-----4---4----2-----0--0--------0---0-----|
|--2---------4--------------2-----2-----------2---2------|
|-1---------2--------------4-----2----------0---------0--|
|-------------------------2-----0------------------------|

Intro B.
|-----------0-------------|
|---2-2----0----2----2--0-|
|--2--2---2--------2-2--2-|
|-0------0------0-0-----0-|
|-------------------------|
|-------------------------|

Stanza Pattern:

     if ever you.....        
     sometimes i get lonely...
|--------0------0------0---0--2-----2--------------------0-|
|-2----2---2----1----1---1--------0------0-3-----3-3---0---|
|-2--2-------2--2--2---2---------------0-------0-----------|
|-0-------------0---------------0----0-------2-------2-----|
|------------------------------------------0-------0-------|
|-----------------------------3----------------------------|

 
     Since i met you.....        
     you captured somethin'....
|--------0------0------0---0--2-----2--------------------0-|
|-2----2---2----1----1---1--------0------0-3-----3-3---0---|
|-2--2-------2--2--2---2---------------0-------0-----------|
|-0-------------0---------------0----0-------2-------2-----|
|------------------------------------------0-------0-------|
|-----------------------------3----------------------------|


    just the way...
    it's not enough...
|-----------------0---------------------0---------------------|
|-------2-2h3---3---------2-----2-------0-----0-3-----3-2---0-|
|-------------4-----------2---2---------0---0-------0---------|
|-----4-----------------2---2---------2---2-------2-------2---|
|-0-2-----------------4-------------2-----------0-------0-----|
|-------------------2-------------0---------------------------|

    never thought...                                 
    loving you best....                              
|---------------------------------------0-------------
|---------2h3p2-------2-----2-----------0--2/3-----3--
|-------4-------4---4-2---2-2---2-------0--------0----
|-----4-----------4-----2-----2-------2--------2------
|-0-2-------------------------------2------0----------
|---------------------2-----------0-------------------



Chorus Pattern:

 because of you....
--------0-|-0-----0--0-0-----0--0-------0----------------
--2-----2-|-3---3-3--3-1---1-3--1-0-------3-----3-----3--
------0---|-2-2---2--2-2-2---2--2-0---0-----0-------0----
----2-----|-0--------0-0--------0---0---------0---0------
--0-------|-------------------------------------0--------
----------|-----------------------3----------------------
[ Tab from: http://www.guitartabs.cc/tabs/k/keith_martin/because_of_you_tab.html ]
  because of you.... 
--------0-|-------------------------------------0-------------------0-|
--2-----2-|-------2h3p2-------2-----2-----------0-----0-3-----3-2---2-|
------0---|-----4-------4---4-2---2-2---2-------0---0-------0-------0-|
----2-----|---4-----------4-----2-----2-------2---2-------2-------2---|
--0-------|-2-------------------------------2-----------0-------0-----|
----------|-------------------2-----------0---------------------------|

Repeat Intro B.
Repeat Stanza Pattern.
Repeat Chorus Pattern.


Bridge Pattern:

    the magic in....
|-------------------------------0---------2222-1111-0-----0--|
|---------2h3-----------3---------2-----2-2222-1111-0-----3--|
|-------4-------4-----4---4---4---2---2---2222-1111-0---0-0--|
|-----4-------4-----4-------4-------2-----2222-1111-2-2------|
|-0-2-------------2-----------------------4444-3333-2--------|
|---------------------------------2-------2222-1111-0--------|
                                          dudu dudu

   when you hold me.... 
|----------------------------------------------
|-0-----3--3-----3-2---2------------------2----
|-0---0-0------0------------4-----4-3---3---3--
|---2--------2-------2---2------2-----2--------
|----------0-------0----------4----------------
|-0-------------------------2-----2-2----------


   i want you to know....
|------------------------------0-------------------------|
|-2h3-------3-------3----3-------2-------2-------2-----2-|
|-2-----4-------4------4-----4---2---2-------2-------2---|
|-----4---4---4---4--4-----4-------2---2---2---2---2-----|
|-2------------------------------------------------------|
|--------------------------------2-----------------------|

  you mean so much...
|--------------------------------------------|
|-0-----3-------0-----3--3-------3------3-2--|
|-0---0-0-------0---0-0------0-------0-------|
|---2-------------2--------2---2---2---------|
|------------------------0----------------0--|
|-0-------------0----------------------------|

Repeat Chorus Pattern:


Ending Pattern:

.... it's because of you...   
|------------------------------------------------------5--|
|-------------------------1-----1-----------1-------2--2--|
|-----------------------3---3-----3-------3-------2----2--|
|---------------------3-------3-----3---3-------0------0--|
|-------------------1-----------------1-------------------|
|---------------------------------------------------------|

h-hammer on
p-pull off
/-slide up
dudu - down,up,down,up stroke (hehehe....)

Intro A. - from the original version (optional)
Intro B. - Paolo Santos version

This is the best transcription that i've ever come up with, 
if there is an error please e-mail me at secret_attack@yahoo.com
or better yet pag tyagaan nyo na lang... kaka tamad na ulitin... hehehe...


Enjoy Playing!!!
  __
 /  \_//
/  |O|==========###
\__/'\_ Harris V.
Comments