Keating Ronan - When You Say Nothing At All Chords & Tabs

 

When You Say Nothing At All Chords & Tabs

Keating Ronan Chords & Tabs

Version: 1 Type: Tab 7 ratings
1 star 2 stars 3 stars 4 stars 5 stars
comments

When You Say Nothing At All Tab

   
Ronan Keating - When You Say Nothing At All
Album: Boyzone - By Request


Using normal key.

Intro:
|---------|-----2-3-|---------|-------2/3-|---------|-----2-3-|---------|-------2/3-|
|-----3---|---------|-----3---|-----3-----|-----3---|---------|-----3---|-----3-----|
|-------0-|---2-----|---0---0-|---2-------|-------0-|---2-----|---0---0-|---2-------|
|---0-----|-0-------|---------|-0---------|---0-----|-0-------|---------|-0---------|
|---------|---------|-3-------|-----------|---------|---------|-3-------|-----------|
|-3-------|---------|---------|-----------|-3-------|---------|---------|-----------|


Verse 1:
|---------|-----2-3-|---------|-------2/3-|---------|-----2-3-|---------|-------2/3-|
|-----3---|---------|-----3---|-----3-----|-----3---|---------|-----3---|-----3-----|
|-------0-|---2-----|---0---0-|---2-------|-------0-|---2-----|---0---0-|---2-------|
|---0-----|-0-------|---------|-0---------|---0-----|-0-------|---------|-0---------|
|---------|---------|-3-------|-----------|---------|---------|-3-------|-----------|
|-3-------|---------|---------|-----------|-3-------|---------|---------|-----------|
 It's amazing how you can speak right to my heart


|---------|-----2-3-|---------|-------2/3-|---------|-----2-3-|---------|-------2/3-|
|-----3---|---------|-----3---|-----3-----|-----3---|---------|-----3---|-----3-----|
|-------0-|---2-----|---0---0-|---2-------|-------0-|---2-----|---0---0-|---2-------|
|---0-----|-0-------|---------|-0---------|---0-----|-0-------|---------|-0---------|
|---------|---------|-3-------|-----------|---------|---------|-3-------|-----------|
|-3-------|---------|---------|-----------|-3-------|---------|---------|-----------|
 Without saying a word you can light up the dark


Bridge:
|---------3-------|---------2-------|
|-----3-------3---|-----3-------3---|
|---0---0---0---0-|---2---2---2---2-|
|-----------------|-0---------------|
|-3---------------|-----------------|
|-----------------|-----------------|
 Try as I may I can never explain


|---------|-----2-3-|---------|---------0-------|---------2-------|
|-----3---|---------|-----3---|-----3-------3---|-----3-------3---|
|-------0-|---2-----|---0---0-|---2---2---2---2-|---2---2---2---2-|
|---0-----|-0-------|---------|-0---------------|-0---------------|
|---------|---------|-3-------|-----------------|-----------------|
|-3-------|---------|---------|-----------------|-----------------|
 What I hear when you don't say a thing


Chorus:
|---------|-----2-3-|---------|-------2/3-|
|-----3---|---------|-----3---|-----3-----|
|-------0-|---2-----|---0---0-|---2-------|
|---0-----|-0-------|---------|-0---------|
|---------|---------|-3-------|-----------|
|-3-------|---------|---------|-----------|
 The smile on your face lets me know that you need me


|---------|-----2-3-|---------|-------2/3-|
|-----3---|---------|-----3---|-----3-----|
|-------0-|---2-----|---0---0-|---2-------|
|---0-----|-0-------|---------|-0---------|
|---------|---------|-3-------|-----------|
|-3-------|---------|---------|-----------|
 Cause the truth in your eyes saying you'll never leave me


|---------|-----2-3-|---------|---------|---------0-------|---------2-------|
|-----3---|---------|-----3---|-----3---|-----3-------3---|-----3-------3---|
|-------0-|---2-----|---0---0-|---0---0-|---2---2---2---2-|---2---2---2---2-|
|---0-----|-0-------|---------|---------|-0---------------|-0---------------|
|---------|---------|-3-------|-3-------|-----------------|-----------------|
|-3-------|---------|---------|---------|-----------------|-----------------|
 The touch of your hand said you'll catch me where ever I fall


|---------3-------|-2-------|
|-----3-------3---|-3-------|
|---0---0---0---0-|-2-------|
|-----------------|-0-------|
|-3---------------|---------|
|-----------------|---------|
 You say it best when you say nothing at all


Solo:
|---------|-----2-3-|---------|-------2/3-|---------|-----2-3-|---------|-------2/3-|
|-----3---|---------|-----3---|-----3-----|-----3---|---------|-----3---|-----3-----|
|-------0-|---2-----|---0---0-|---2-------|-------0-|---2-----|---0---0-|---2-------|
|---0-----|-0-------|---------|-0---------|---0-----|-0-------|---------|-0---------|
|---------|---------|-3-------|-----------|---------|---------|-3-------|-----------|
|-3-------|---------|---------|-----------|-3-------|---------|---------|-----------|


Verse 2:
|---------|-----2-3-|---------|-------2/3-|---------|-----2-3-|---------|-------2/3-|
|-----3---|---------|-----3---|-----3-----|-----3---|---------|-----3---|-----3-----|
|-------0-|---2-----|---0---0-|---2-------|-------0-|---2-----|---0---0-|---2-------|
|---0-----|-0-------|---------|-0---------|---0-----|-0-------|---------|-0---------|
|---------|---------|-3-------|-----------|---------|---------|-3-------|-----------|
|-3-------|---------|---------|-----------|-3-------|---------|---------|-----------|
 All day long I can hear people talking aloud


|---------|-----2-3-|---------|-------2/3-|---------|-----2-3-|---------|-------2/3-|
|-----3---|---------|-----3---|-----3-----|-----3---|---------|-----3---|-----3-----|
|-------0-|---2-----|---0---0-|---2-------|-------0-|---2-----|---0---0-|---2-------|
|---0-----|-0-------|---------|-0---------|---0-----|-0-------|---------|-0---------|
|---------|---------|-3-------|-----------|---------|---------|-3-------|-----------|
|-3-------|---------|---------|-----------|-3-------|---------|---------|-----------|
 But when you hold me near you drown out the crowd

[ Tab from: http://www.guitartabs.cc/tabs/k/keating_ronan/when_you_say_nothing_at_all_tab.html ]
Bridge:
|---------3-------|---------2-------|
|-----3-------3---|-----3-------3---|
|---0---0---0---0-|---2---2---2---2-|
|-----------------|-0---------------|
|-3---------------|-----------------|
|-----------------|-----------------|
 Try as they may they can never define


|---------|-----2-3-|---------|---------0-------|
|-----3---|---------|-----3---|-----3-------3---|
|-------0-|---2-----|---0---0-|---2---2---2---2-|
|---0-----|-0-------|---------|-0---------------|
|---------|---------|-3-------|-----------------|
|-3-------|---------|---------|-----------------|
 What's been said between your heart and mine


Chorus:
|---------|-----2-3-|---------|-------2/3-|
|-----3---|---------|-----3---|-----3-----|
|-------0-|---2-----|---0---0-|---2-------|
|---0-----|-0-------|---------|-0---------|
|---------|---------|-3-------|-----------|
|-3-------|---------|---------|-----------|
 The smile on your face lets me know that you need me


|---------|-----2-3-|---------|-------2/3-|
|-----3---|---------|-----3---|-----3-----|
|-------0-|---2-----|---0---0-|---2-------|
|---0-----|-0-------|---------|-0---------|
|---------|---------|-3-------|-----------|
|-3-------|---------|---------|-----------|
 Cause the truth in your eyes saying you'll never leave me


|---------|-----2-3-|---------|---------|---------0-------|---------2-------|
|-----3---|---------|-----3---|-----3---|-----3-------3---|-----3-------3---|
|-------0-|---2-----|---0---0-|---0---0-|---2---2---2---2-|---2---2---2---2-|
|---0-----|-0-------|---------|---------|-0---------------|-0---------------|
|---------|---------|-3-------|-3-------|-----------------|-----------------|
|-3-------|---------|---------|---------|-----------------|-----------------|
 The touch of your hand said you'll catch me where ever I fall


|---------3-------|-2-------|
|-----3-------3---|-3-------|
|---0---0---0---0-|-2-------|
|-----------------|-0-------|
|-3---------------|---------|
|-----------------|---------|
 You say it best when you say nothing at all


Solo:
E, B, A, B X3
A, A, B, B


Chorus:
       G              D         Csus4           D
 The smile on your face lets me know that you need me
             G             D         Csus4
 Cause the truth in your eyes saying you'll never leave me...

                                                           |---------0-------|---------2-------|
                                                           |-----3-------3---|-----3-------3---|
                                                           |---2---2---2---2-|---2---2---2---2-|
                                                           |-0---------------|-0---------------|
                                                           |-----------------|-----------------|
       G            D               Csus4                  |-----------------|-----------------|
 The touch of your hand said you'll catch me where ever I fall


|---------3-------|-2-------|
|-----3-------3---|-3-------|
|---0---0---0---0-|-2-------|
|-----------------|-0-------|
|-3---------------|---------|
|-----------------|---------|
 You say it best when you say nothing at all


Solo:
|---------|-----2-3-|---------|-------2/3-|---------|-----2-3-|---------|-------2/3-|
|-----3---|---------|-----3---|-----3-----|-----3---|---------|-----3---|-----3-----|
|-------0-|---2-----|---0---0-|---2-------|-------0-|---2-----|---0---0-|---2-------|
|---0-----|-0-------|---------|-0---------|---0-----|-0-------|---------|-0---------|
|---------|---------|-3-------|-----------|---------|---------|-3-------|-----------|
|-3-------|---------|---------|-----------|-3-------|---------|---------|-----------|


|---------|-----2-3-|---------|-------2/3-|---------|-----2-3-|---------|-------2/3-|
|-----3---|---------|-----3---|-----3-----|-----3---|---------|-----3---|-----3-----|
|-------0-|---2-----|---0---0-|---2-------|-------0-|---2-----|---0---0-|---2-------|
|---0-----|-0-------|---------|-0---------|---0-----|-0-------|---------|-0---------|
|---------|---------|-3-------|-----------|---------|---------|-3-------|-----------|
|-3-------|---------|---------|-----------|-3-------|---------|---------|-----------|
 You say it best when you say nothing at all, you say it best when you say nothing at all


|---------|-----2-3-|---------|-------2/3-|---------|-----2-3-|---------|-------2/3-|
|-----3---|---------|-----3---|-----3-----|-----3---|---------|-----3---|-----3-----|
|-------0-|---2-----|---0---0-|---2-------|-------0-|---2-----|---0---0-|---2-------|
|---0-----|-0-------|---------|-0---------|---0-----|-0-------|---------|-0---------|
|---------|---------|-3-------|-----------|---------|---------|-3-------|-----------|
|-3-------|---------|---------|-----------|-3-------|---------|---------|-----------|
 The smile on your face, the truth in your eyes, the touch of your hand let me know that you need me
 (You say it best when you say nothing at all, you say it best when you say nothing at all)


|---------|-----2-3-|---------|-------2/3-|---------|-----2-3-|---------|-------2/3-|
|-----3---|---------|-----3---|-----3-----|-----3---|---------|-----3---|-----3-----|
|-------0-|---2-----|---0---0-|---2-------|-------0-|---2-----|---0---0-|---2-------|
|---0-----|-0-------|---------|-0---------|---0-----|-0-------|---------|-0---------|
|---------|---------|-3-------|-----------|---------|---------|-3-------|-----------|
|-3-------|---------|---------|-----------|-3-------|---------|---------|-----------|
 You say it best when you say nothing at all, you say it best when you say nothing at all

(Repeat until fade)



From: V.Chiang 
Comments