Keane - Somewhere Only We Know Chords & Tabs

 

Somewhere Only We Know Chords & Tabs

Keane Chords & Tabs

Version: 1 Type: Bass Tab 0 ratings
1 star 2 stars 3 stars 4 stars 5 stars
comments

Somewhere Only We Know Bass Tab

   
----------------------------------------------------------------------------
			     Somewhere Only We Know - Keane
----------------------------------------------------------------------------


Ive apdapted this from tabber Philip Hannaart 5 string bass version so it can be played on a 4 string.
Its not perfect but it fits


                Adapted by RenRec

e-mail: 	dchappers@hotmail.com


Tuning: E,A,D,G

--Intro--
G-----------------------------------------------------------|
D-----------------------------------------------------------|
A----------------------------------2----2-2-2---------------|
E--5----5-5-5------4----4-4-4------------------0----0-0-0/5-|


--Break--

--Chorus--
G-----------------------------------------------------|
D-4--4-4-4-4-4----------------------------------------|
A--------------4--4-4-4-4-4-5--5-5-5-5-5-5--5-5-5-5-4-|
E-----------------------------------------------------|

G-----------------------------------------------------|
D-4--4-4-4-4-4----------------------------------------|
A--------------4--4-4-4-4-4-5--5-5-5-5-5-5--5-5-5\----|
E-------------------------------------------------12--|


I think the bass part slides up to each small section for instance A on the e - string slides
to

--Verse2--
G-----------------------------------------------------------|
D----------------------6----6-6-6---------------------------|
A----------------------------------2----2-2-2---------------|
E-12--5----5-5-5-------------------------------0----0-0-0/5-|


G------------------------------------------------------|
D-----------------6----6-6-6---------------------------|
A-----------------------------2----2-2-2---------------|
E5----5-5-5-------------------------------0----0-0-0/5-|


--Chorus--
G-----------------------------------------------------|
D-4--4-4-4-4-4----------------------------------------|
A--------------4--4-4-4-4-4-5--5-5-5-5-5-5--5-5-5-5-4-|
E-----------------------------------------------------|

G-----------------------------------------------------|
D-4--4-4-4-4-4----------------------------------------|
A--------------4--4-4-4-4-4-5--5-5-5-5-5-5--5-5-5-5-5-|
E-----------------------------------------------------|


--Chorus2--
G---------------------------------------------------------------|
D------------------------2-2-2-2------------------------2-2-2-2-|
A-2-2-2-2-2-2-2-2/4-4-4-4/-------2-2-2-2-2-2-2-2/4-4-4-4/-------|
E---------------------------------------------------------------|

G---------------------------------------------------------------|
D------------------------2-2-2-2------------------------2-2-2-2-|
A-2-2-2-2-2-2-2-2/4-4-4-4/-------2-2-2-2-2-2-2-2/4-4-4-4/-------|
E---------------------------------------------------------------|


G----------|
D----------|
A-5-7--5-7-|
E----------|
B----------|

--Short Rest--
[ Tab from: http://www.guitartabs.cc/tabs/k/keane/somewhere_only_we_know_btab.html ]
--Chorus--
G-----------------------------------------------------|
D-4--4-4-4-4-4----------------------------------------|
A--------------4--4-4-4-4-4-5--5-5-5-5-5-5--5-5-5-5-4-|
E-----------------------------------------------------|

G-----------------------------------------------------|
D-4--4-4-4-4-4----------------------------------------|
A--------------4--4-4-4-4-4-5--5-5-5-5-5-5--5-5-5-5-4-|
E-----------------------------------------------------|

--Chorus2--
G---------------------------------------------------------------|
D------------------------2-2-2-2------------------------2-2-2-2-|
A-2-2-2-2-2-2-2-2/4-4-4-4/-------2-2-2-2-2-2-2-2/4-4-4-4/-------|
E---------------------------------------------------------------|

G---------------------------------------------------------------|
D------------------------2-2-2-2------------------------2-2-2-2-|
A-2-2-2-2-2-2-2-2/4-4-4-4/-------2-2-2-2-2-2-2-2/4-4-4-4/-------|
E---------------------------------------------------------------|

G---------------------------------------------------------------|
D------------------------2-2-2-2------------------------2-2-2-2-|
A-2-2-2-2-2-2-2-2/4-4-4-4/-------2-2-2-2-2-2-2-2/4-4-4-4/-------|
E---------------------------------------------------------------|


G---------------------------------------------------------------|
D------------------------2-2-2-2------------------------2-2-2-2-|
A-2-2-2-2-2-2-2-2/4-4-4-4/-------2-2-2-2-2-2-2-2/4-4-4-4/-------|
E---------------------------------------------------------------|

G---------------------------------------------------------------|
D------------------------2-2-2-2------------------------2-2-2-2-|
A-2-2-2-2-2-2-2-2/4-4-4-4/-------2-2-2-2-2-2-2-2/4-4-4-4/-------|
E---------------------------------------------------------------|


G---------------------------------------------------------------|
D------------------------2-2-2-2------------------------2-2-2-2-|
A-2-2-2-2-2-2-2-2/4-4-4-4/-------2-2-2-2-2-2-2-2/4-4-4-4/-------|
E---------------------------------------------------------------|

G---------------------------------------------------------------|
D------------------------2-2-2-2------------------------2-2-2-2-|
A-2-2-2-2-2-2-2-2/4-4-4-4/-------2-2-2-2-2-2-2-2/4-4-4-4/-------|
E---------------------------------------------------------------|


G---------------------------------------------------------------|
D------------------------2-2-2-2------------------------2-2-2-2-|
A-2-2-2-2-2-2-2-2/4-4-4-4/-------2-2-2-2-2-2-2-2/4-4-4-4/-------|
E---------------------------------------------------------------|


G----------|
D----------|
A----------|
E----------|
B-3------5-|

===============================================================================
| /  slide up
| \  slide down
| h  hammer-on
| p  pull-off
| ~  vibrato
| +  harmonic
| x  Mute note
===============================================================================
Comments