Keane - Everybodys Changing Chords & Tabs

 

Everybodys Changing Chords & Tabs

Keane Chords & Tabs

Version: 1 Type: Bass Tab 0 ratings
1 star 2 stars 3 stars 4 stars 5 stars
comments

Everybodys Changing Bass Tab

Everybody's Changing
Keane

I'm doing a cover of this song so I thought I'd send in the tabs so if anyone
else is doing a cover, they don't have to bother fuguring it out.

These are the different parts.

INTRO

G|--------------------|
D|-----------3-33-----|
A|-3-33-33-3------3-33|
E|--------------------|

VERSE
[ Tab from: http://www.guitartabs.cc/tabs/k/keane/everybodys_changing_btab.html ]
G|------------------------------------------------------|
D|------------------------------------------------------|
A|-33-3-3-333-3-3-3------------------55-5-5-5--------0-2|
E|------------------11-1-1-111-1-1-1----------33-3-3----|

CHORUS

G|---------------------|------------------|------------------|
D|---------------------|------------------|------------------|
A|-----------------0-2-|-33-3-3-3---------|-55-5-5-5---------|
E|-11-1-1-1-33-3-3-----|----------11-1-1-1|----------33-3-5-7|

G|--------------------|--------------------|
D|--------------------|--------------------|
A|----------00-0-0-2-4|-55-5-5-5--------0-2|
E|-00-0-0-0-----------|----------33-3-3----|
Comments