Keane - Cant Stop Now Chords & Tabs

 

Cant Stop Now Chords & Tabs

Keane Chords & Tabs

Version: 1 Type: Bass Tab 0 ratings
1 star 2 stars 3 stars 4 stars 5 stars
comments

Cant Stop Now Bass Tab

Intro
G|--------------------------------------------------------|
D|------------------------------------3-5-7\----/5-5------|
A|-8-8-\-0-0-/-1-1-/-2-2-/-5-5-\-3-3--------1-1-------3-3-|
E|--------------------------------------------------------|

refrein
G|--------------------------------------------------------|
D|--------------------------------------------------------|
A|-5-5--1-1--6-6--8-8--6/8\5-5--0-0--1-1--8-8--6/8\5------|
E|--------------------------------------------------------|
              (6/8\5 fast)

G|--------------------------------------------------------|
D|--------------------------------------------------------|
A|-5--1-1--6-6--8-8--6/8\5-5--0-0--1-1--3-3---------------|
E|--------------------------------------------------------|
              (6/8\5 fast)
chorus
G|--------------------------------------------------------|
D|------------------------------------3-5-7\----/5-5------|
A|-8-8-\-0-0-/-1-1-/-8-8-\-5-5-\-3-3--------1-1-------3-3-|
E|--------------------------------------------------------|

refrein
G|--------------------------------------------------------|
D|--------------------------------------------------------|
A|-5-5--1-1--6-6--8-8--6/8\5-5--0-0--1-1--8-8--6/8\5------|
E|--------------------------------------------------------|
              (6/8\5 fast)
[ Tab from: http://www.guitartabs.cc/tabs/k/keane/cant_stop_now_btab.html ]
G|--------------------------------------------------------|
D|--------------------------------------------------------|
A|-5--1-1--6-6--8-8--6/8\5-5--0-0--1-1--3-3---------------|
E|--------------------------------------------------------|
              (6/8\5 fast)
chorus
G|--------------------------------------------------------|
D|------------------------------------3-5-7\----/5-5------|
A|-8-8-\-0-0-/-1-1-/-8-8-\-5-5-\-3-3--------1-1-------3-3-|
E|--------------------------------------------------------|

chorus 2
G|---------------------------3------3------------------5---|
D|-------------------------------------3-5-7\----/5-3------|
A|-8-8-\-0-0-/-1-1-/-2-2-/-5---5-3---3--------1-1----------|
E|---------------------------------------------------------|


G|---------------------------3------3----------------------|
D|-------------------------------------3-5-7\----/5-3-5----|
A|-8-8-\-0-0-/-1-1-/-2-2-/-5---5-3---3--------1-1----------|
E|---------------------------------------------------------|


G|--------------------------------------------------------|
D|--------------------------------------------------------|
A|-3----5-------------------(silence piano)---------------|
E|--------------------------------------------------------|

outro
G|--------------------------------------------------------|
D|--------------------------------------------------------|
A|-5--6--1--3--5--6--1--3--5--6--1--3--5--6---1~~~~-------|
E|--------------------------------------------------------|

listen to the song for the correct speeds.
Comments