Keane - Bedshaped Chords & Tabs

 

Bedshaped Chords & Tabs

Keane Chords & Tabs

Version: 1 Type: Bass Tab 0 ratings
1 star 2 stars 3 stars 4 stars 5 stars
comments

Bedshaped Bass Tab

   
			     SONG NAME - Band Name

G|-----------------------------------------------------------------------------|
D|---------7------------9-----------x2-----------------------------------------|
A|---7  ---------4-------------------------------------------------------------|
E|-----------------------------------------------------------------------------|

G|----------------------------------------------------------------------------|
D|----------7----------9---------7------------9-------------------------------|
A|-----7---------4----------7-----------4-----------4------------------6------|
E|------------------------------------------------------------4---------------|


G|---------------------------------------------------------------------------|
D|-----------------------------------------------------------------7---------|
A|------9-----7---------------9----7-------------------------7-----------4---|
E|--7-------------9-----7---------------9-----7----5----2--------------------|
[ Tab from: http://www.guitartabs.cc/tabs/k/keane/bedshaped_btab.html ]
G|---------------------------------------------------------------------------|
D|---9--------7---------9----------------------------------------------------|
A|-------7---------4--------4--------6---------9-----7--------------9------7-|
E|-------------------------------4---------7--------------9-----7------------|

G|----------------------------------------------------------------------------|
D|--------------------------------------------7------11-----9-----------------|
A|--------------------------7--stick----7------------------------9-----7------|
E|---9-----7------5----2----------------------------------------------------9-|

G|---------------------------------------------------------------------------|
D|---------------------------------------------------------------------------|
A|------9-----7----------------9----7----------------------------------------|
E|--7-------------9-----7-----------------9-----7------5-----2-----2-----0---|

G|---------------------------------------------------------------------------|
D|---------------------------------------------------------------------------|
A|---------------------------------------------------------------------------|
E|---------------------------------------------------------------------------|


| /  slide up
| \  slide down
| h  hammer-on
| p  pull-off
| ~  vibrato
| +  harmonic
| x  Mute note
===============================================================================
Comments