Keahiwai - Falling Chords & Tabs

 

Falling Chords & Tabs

Keahiwai Chords & Tabs

Version: 2 Type: Tab 0 ratings
1 star 2 stars 3 stars 4 stars 5 stars
comments

Falling Tab

   
Falling
KeaHiwai
Transcribed by: Walter Michael De la Cruz - SLU, Baguio City - 09224012464

Notes: Asteeg tlga itong song na 2. Wla lng ayos ung lyrics and pwede u kantahin sa nililigawan nyo.


*Capo on 4th Fret*

Intro:
1st guitar

        G              G/B                 Am7          D
E|---3---3---3----3-----3---0----0-----3----2-----2-3----------------|
B|---3-t-3---3----3-t---3---3----1--t--1----3--t--3-3----------------|
G|---0-a-0---0----0-a---0---0----0--a--0----2--a--2-2----------------|
D|---0-p-0---0----0-p---0---0----2--p--2--0----p---------------------|
A|-----------2--2-----------2--0-------------------------------------|
E|-3---------3-------------------------------------------------------|

2nd guitar

E|--------------------------------------------------------|
B|-----8-7-----7p5----------------------------------------|
G|---7-------7--------------------------------------------|
D|-5-------5----------------------------------------------|
A|--------------------------------------------------------|
E|--------------------------------------------------------|

Verse 1: Just continue on repeating the chords
      
  G              G/B                 Am7          D
E|---3---3---3----3-----3---0----0-----3----2-----2-3----------------|
B|---3-t-3---3----3-t---3---3----1--t--1----3--t--3-3----------------|
G|---0-a-0---0----0-a---0---0----0--a--0----2--a--2-2----------------|
D|---0-p-0---0----0-p---0---0----2--p--2--0----p---------------------|
A|-----------2--2-----------2--0-------------------------------------|
E|-3---------3-------------------------------------------------------|
[ Tab from: http://www.guitartabs.cc/tabs/k/keahiwai/falling_tab_ver_2.html ]
I wanna Tell you Baby that your the one im thinkin of
But your heart is still with her
And i Think She's the one that You Love
I only want you happy even it's not with me
Maybe one day, You'll open up your heart and say

Chorus:

1st guitar

        G              G/B                 Am7          D
E|---3---3---3----3-----3---0----0-----3----2-----2-3----------------|
B|---3-t-3---3----3-t---3---3----1--t--1----3--t--3-3----------------|
G|---0-a-0---0----0-a---0---0----0--a--0----2--a--2-2----------------|
D|---0-p-0---0----0-p---0---0----2--p--2--0----p---------------------|
A|-----------2--2-----------2--0-------------------------------------|
E|-3---------3-------------------------------------------------------|


2nd guitar

E|--------------------------------------------------------|
B|-----8-7-----7p5----------------------------------------|
G|---7-------7--------------------------------------------|
D|-5-------5----------------------------------------------|
A|--------------------------------------------------------|
E|--------------------------------------------------------|


And I think im Fallin'
Baby im Fallin for you
Yeah i Think im Fallin
Baby Im Fallin for you

Verse 2:
From the First Time, With your lips on mine
It feels like the smile on my face
will last till the end of time
But im not so sure, If your the one i should pursue
My mind tells me no
But my heart only says that is you

(Repeat Chorus)

Bridge:

Am7              Em
Only time will tell
CM7                                Em
The mystery has yet to unfold
Am7                     Em
Who's gonna feel much love's warm
C                                 D
and the other left in the cold

Repeat Chorus


Comments,questions,?? send me a message in friendster at Walterfdelacruz@yahoo.com
Comments