Kc And The Sunshine Band - Thats The Way Chords & Tabs

 

Thats The Way Chords & Tabs

Kc And The Sunshine Band Chords & Tabs

Version: 2 Type: Bass Tab 0 ratings
1 star 2 stars 3 stars 4 stars 5 stars
comments

Thats The Way Bass Tab

                                That's the way                                  


                                              KC and The Sunshine Band



-I like it...



Tab by Francesco 'BMCL' Miceli.                                                                       
For comments, information or insults: 

     G.Miceli@iol.it
     F.Miceli@infinito.it
[ Tab from: http://www.guitartabs.cc/tabs/k/kc_and_the_sunshine_band/thats_the_way_btab_ver_2.html ]
                                                       4x
G||-------------------------|--------------------------||
D||*------------------------|---------------3--3-1----*||
A||*---------------3--------|----------------------3--*||
E||---1---3---4-------4--3--|--1---4---1---------------||


                                                 4x
------------------------|------------------------||
*-----------------------|-----------------------*||
*--3--1--------0--1--0/-|--3--3--------0--1--0--*||
------------------------|------------------------||


Just repeat ad lib! Have fun...
Comments