Kc And The Sunshine Band - Get Down Tonight Chords & Tabs

 

Get Down Tonight Chords & Tabs

Kc And The Sunshine Band Chords & Tabs

Version: 1 Type: Bass Tab 0 ratings
1 star 2 stars 3 stars 4 stars 5 stars
comments

Get Down Tonight Bass Tab

Get Down Tonight - KC and the Sunshine Band

  intro                                      first verse riff
G|-----------------------------------------|------------------|
D|/3--53-----3-53-3-------5-3-------3-53-3-|------------------|
A|---3---53-5----5--53--35----5-3-35----5--|3--3--------------|
E|--------------------1--------------------|-31-1-01-1-1-1-01-|

[ Tab from: http://www.guitartabs.cc/tabs/k/kc_and_the_sunshine_band/get_down_tonight_btab.html ]
  chorus "do a little dance" (x2)      second verse riff  solo riff
G|-----------------------------11/3\-|----11/3\-----------|---------------------|
D|----------------1-3-31---1-3-------|---3-----------1113-|---------------------|
A|3---3--1---1----------3------------|-------------3------|---------31----------|
E|---1------1---1--------1-----------|1---------1---------|1-1-01-1---1-11-01-1-|


 "get down get down get down"
G|----11/3\-----------|
D|---3-----------1113-|
A|-------------3------|
E|1---------1---------|

tabbed by Achilles (blue_sincere@hotmail.com)
Comments