Katy Perry - I Kissed A Girl Chords & Tabs

 

Katy Perry Chords & Tabs

Version: 3 Type: Bass Tab 0 ratings
1 star 2 stars 3 stars 4 stars 5 stars
comments

I Kissed A Girl Bass Tab

I know a lot of people say this but this is my first tab but this really is mine. I know 
not the original but this is what I came up with just fooling around one day and 
ill put it on here..

Hope you have fun with it.

INTRO/VERSE
-------------------------------------------------------|
-------------------------------------------------------|
-4/----000000000000000-2222222233333333----------------|
-------------------------------------------------------|
								x4
-------------------------------------------------------|
-------------------------------------------------------|
-------000000000000000-2222222223333333----------------|
-------------------------------------------------------|


CHORUS
--------------------------------------------------------------------|
-------------------------------------0-3h5-5------------------------|    x2
--0-0-0-0-0-3-0-0-0-0-5-0-0-0-0-0-3h5--------3-5--------------------|
--------------------------------------------------------------------|
[ Tab from: http://www.guitartabs.cc/tabs/k/katy_perry/i_kissed_a_girl_btab_ver_3.html ]
--------------------------------------------------------------------|
-----------------------------------0-5h7-5--------------------------|
--0-0-0-0-5-0-0-0-0-7-0-0-0-0-0-5h7--------5-7----------------------|
--------------------------------------------------------------------|

---------------------------------------------------------------------------|
------------------------------------0-3h5----------------------------------|
-0-0-0-0-7-0-0-0-0-9—-------0-3h5-----------0-3h5--------------------|


INTERLUDE

NOTHING

CHORUS

--------------------------------------------------------------------|
-------------------------------------0-3h5-5------------------------|    x2
--0-0-0-0-0-3-0-0-0-0-5-0-0-0-0-0-3h5--------3-5--------------------|
--------------------------------------------------------------------|

--------------------------------------------------------------------|
------------------------------------0-5h7-5-------------------------|
--0-0-0-0-5-0-0-0-0-7-0-0-0-0-0-5h7---------5-7---------------------|
--------------------------------------------------------------------|

---------------------------------------------------------------------------|
-----------------------------------0-3h5-----------------------------------|
-0-0-0-0-7-0-0-0-0-9—-------0-3h5---------0-3h5----------------------|
Comments