Katy Perry - I Kissed A Girl Chords & Tabs

 

Katy Perry Chords & Tabs

Version: 2 Type: Bass Tab 0 ratings
1 star 2 stars 3 stars 4 stars 5 stars
comments

I Kissed A Girl Bass Tab

Hey Guy's, this is my first tab... no really it is
Most of the bands i like already have tabs for them so i thought i'd tab this one up. Enjoy.

(I fixed this one up a little bit to make it more understandable)

Verse...lol
G|------------------------------------------------|
D|------------------------------------------------|
A|------------------------555555555555888888777777| x4
E|555555555555777777888888------------------------|

Chorus(in the song its a synthisizer so i made it into a bass part)

G-------------|
D-------------| play this around 8 times until bass line changes
A-------------|
E--5-5-5-5----|

G|-------------------------------|
D|-------------------------------|
A|---------------5-5-5-5-8-8-7-7-|
E|5-5-5-5-8-8-8-8----------------|

G|------------------------------|
D|------------------------------|
A|---------------5-5-5-5-8-8-7-7|
E|5-5-5-5-8-8-8-8---------------|
[ Tab from: http://www.guitartabs.cc/tabs/k/katy_perry/i_kissed_a_girl_btab_ver_2.html ]
Verse
G|------------------------------------------------|
D|------------------------------------------------|
A|------------------------555555555555888888777777| x4
E|555555555555777777888888------------------------|

Chorus
G-------------|
D-------------| played same as before
A-------------|
E--5-5-5-5----|

G|----------------------------|
D|----------------------------|
A|------------5-5-5-5-8-8-7-7-|
E|-----8-8-8-8----------------|

G|------------------------------|
D|------------------------------|
A|---------------5-5-5-5-8-8-7-7|
E|5-5-5-5-8-8-8-8---------------|

Bridge (No bass bra)

Chorus
G-------------|
D-------------| played same as before
A-------------|
E--5-5-5-5----|

G|----------------------------|
D|----------------------------|
A|------------5-5-5-5-8-8-7-7-|
E|-----8-8-8-8----------------|

G|------------------------------|
D|------------------------------|
A|---------------5-5-5-5-8-8-7-7|
E|5-5-5-5-8-8-8-8---------------|

There it is guys, let me know how it is.

Keep it clean

Richy-man
Comments