Katy Perry - Hot N Cold Chords & Tabs

 

Katy Perry Chords & Tabs

Version: 1 Type: Tab 0 ratings
1 star 2 stars 3 stars 4 stars 5 stars
comments

Hot N Cold Tab

   
-------------------------------------------------------------------------------
			     "Hot N Cold" - Katy Perry
-------------------------------------------------------------------------------

Tabbed by: [travis]


*This is a catchy song, and it's an easy song to figure out.

*This song is in Drop D, and I know this because I saw this song
live on "Tonight Show With Jay Leno," and the guitarists were playing
the chords in drop d tuning, or power chords. 

*This is the version from the album though, not the live version.

*Also, I tabbed this by ear. It is not from another site, or magazine.


Tuning: Guitar 1 = {D A D G B E} (low to high)
        Guitar 2 = {D A D G B E} (low to high)


Legend:

. = palm mute
~ = vibrato
() = note is not picked
/ = slide up
\ = slide down
h/ = pick once
p\ = pick once


===========================================

The intro of this song is just the keyboard.

===========================================
Chorus 1:
Guitar 1: Listen for rhythm of each chord:
e|-----------------|
B|-----------------|
G|---------2---5---|
D|-5---0---2---5---| x2
A|-5---0---0---3---|
D|-5---0-----------|

Guitar 2:
e|-----------------|
B|-----------------|
G|-----7-----------|
D|-5---7---7---10--| x2
A|-5---5---7---10--|
D|-5---0---7---10--|

=================================
"You don't really want to stay, no..."
Guitar 1: Listen for rhythm of each chord.
e|-------------------|
B|-------------------|
G|-------------------|
D|-5---/12---7---10--| x1
A|-5---/12---7---10--|
D|-5---/12---7---10--|

Guitar 2: Listen for rhythm of each chord.
e|----------------|
B|----------------|
G|-----7---2---5--|
D|-5---7---2---5--| x1
A|-5---5---0---3--|
D|-5--------------|

=================================
"You're hot and cold, you're yes and no..."
Guitar 1: Listen for rhythm of each chord.
e|-----------------|
B|-----------------|
G|---------2---5---|
D|-5---0---2---5---| x1
A|-5---0---0---3---|
D|-5---0-----------|

Guitar 2: Listen for rhythm of each chord.
e|-----------------|
B|-----------------|
G|-----7-----------|
D|-5---7---7---10--| x1
A|-5---5---7---10--|
D|-5---0---7---10--|

===================================

Synth part again.

===================================
Chorus 2:
Guitar 1: Listen for rhythm of each chord.
e|-----------------|
B|-----------------|
G|---------2---5---|
D|-5---0---2---5---| x2
A|-5---0---0---3---|
D|-5---0-----------|

Guitar 2: Listen for rhythm of each chord.
e|-----------------|
B|-----------------|
G|-----7-----------|
D|-5---7---7---10--| x2
A|-5---5---7---10--|
D|-5---0---7---10--|

=================================
"You don't really want to stay, no..."
Guitar 1: Listen for rhythm of each chord.
e|-------------------|
B|-------------------|
G|-------------------|
D|-5---/12---7---10--| x1
A|-5---/12---7---10--|
D|-5---/12---7---10--|

Guitar 2: Listen for rhythm of each chord.
e|----------------|
B|----------------|
G|-----7---2---5--|
D|-5---7---2---5--| x1
A|-5---5---0---3--|
D|-5--------------|

=================================
"You're hot and cold, you're yes and no..."
Guitar 1: Listen for rhythm of each chord.
e|-----------------|
B|-----------------|
G|---------2---5---|
D|-5---0---2---5---| x1
A|-5---0---0---3---|
D|-5---0-----------|
[ Tab from: http://www.guitartabs.cc/tabs/k/katy_perry/hot_n_cold_tab.html ]
Guitar 2: Listen for rhythm of each chord.
e|-----------------|
B|-----------------|
G|-----7-----------|
D|-5---7---7---10--| x1
A|-5---5---7---10--|
D|-5---0---7---10--|

==================================
Change:  Guitar 2 doesn't play right now.
Guitar 1: 
e|-----------------------------------------------------------------------|
B|-----------------------------------------------------------------------|
G|-----------------------------------------------------------------------|
D|-----------------------------------------------------------------------| x2
A|-----------------------------------------------------------------------|
D|-2-2--2--2/10-10-10-10-10-10-10-10---5-5--5--5/12-12-12-12-12-12-12-12-|

===================================
Change Continue:  Guitar 2 is still out.
Guitar 1:
e|-----------------------------------|
B|-----------------------------------|
G|-----------------------------------|
D|-----------------------------------| x1
A|-----------------------------------|
D|-2-2--2--2/10-10-10-10-10-10-10-10-|

===================================
Guitar 1:
e|-----------------------------------------------------------|
B|-----------------------------------------------------------|
G|-----------------------------------------------------------|
D|-----------------------------------------------------------| x1
A|-----------------------------------------------------------|
D|-5-5--5--5/12-12-12-12-12-12-12-12-12-12-12-12-12-12-12-12-|

=====================================
Interlude:  It's only Guitar 1 and Katy on this part.
Guitar 1:
e|--------------------------------------|
B|--------------------------------------|
G|--------------------------------------|
D|--------------------------------------| x1
A|--------------------------------------|
D|-5~~-(5)/12~~~--(12)\7~~~--(7)/10~~~--|

======================================
Chorus 3:
Guitar 1: Listen for rhythm of each chord.
e|-----------------|
B|-----------------|
G|---------2---5---|
D|-5---0---2---5---| x4
A|-5---0---0---3---|
D|-5---0-----------|

Guitar 2: Listen for rhythm of each chord.
e|-----------------|
B|-----------------|
G|-----7-----------|
D|-5---7---7---10--| x4
A|-5---5---7---10--|
D|-5---0---7---10--|

=================================
"You don't really want to stay, no..."
Guitar 1: Listen for rhythm of each chord.
e|-------------------|
B|-------------------|
G|-------------------|
D|-5---/12---7---10--| x1
A|-5---/12---7---10--|
D|-5---/12---7---10--|

Guitar 2: Listen for rhythm of each chord.
e|----------------|
B|----------------|
G|-----7---2---5--|
D|-5---7---2---5--| x1
A|-5---5---0---3--|
D|-5--------------|

=====================================
Guitar 1: Listen for rhythm of each chord.
e|-----------------|
B|-----------------|
G|---------2---5---|
D|-5---0---2---5---| x1
A|-5---0---0---3---|
D|-5---0-----------|

Guitar 2: Listen for rhythm of each chord.
e|-----------------|
B|-----------------|
G|-----7-----------|
D|-5---7---7---10--| x1
A|-5---5---7---10--|
D|-5---0---7---10--|

=========================================
Both guitars end on this chord:
Guitars 1 and 2: Hit this chord only once.
  On this part you can either slowly slide the chord
  down the neck, or push down on the wammy bar slowly.
e|------------------|
B|------------------|
G|------------------|
D|-5~--(5)\\\\\\\\--|
A|-5~--(5)\\\\\\\\--|
D|-5~--(5)\\\\\\\\--|


Please rate and comment this tab.
Thanks
[travis]




===========================================
===========================================
Comments