Kataklysm - Tragedy I Preach Chords & Tabs

 

Tragedy I Preach Chords & Tabs

Kataklysm Chords & Tabs

Version: 1 Type: Tab 0 ratings
1 star 2 stars 3 stars 4 stars 5 stars
comments

Tragedy I Preach Tab

thr trafedy i preach
if u like send be an i.m. @ chiken_balls@yahoo.com
or email me @ black_of_black_white_of_white@yahoo.com
by:dizzle (mike) this is a killer riff
tuning=normal                                                x 4
-----------------------------------------------------------------------|
-----------------------------------------------------------------------|
-----------------------------------------------------------------------|
----2-4/2/4------7/6---4-2/0/2-2/4--6/7---4-4/2/4----7/6--4-2/0/2------|
----4-------2----5/5---2----------5-4/5---2--------2-5/4--2------------|
-----------------------------------------------------------------------|

(light palm mute)
-----------------------------------------------------------------------|
-----------------------------------------------------------------------|
-----------------------------------------------------------------------|
--2-4---2--------------------------------------------------------------|
------5---4-5----------------------------------------------------------|
-----------------------------------------------------------------------|
[ Tab from: http://www.guitartabs.cc/tabs/k/kataklysm/tragedy_i_preach_tab.html ]
Comments