Kataklysm - Eternal I Ritch Infinity Chords & Tabs

 

Eternal I Ritch Infinity Chords & Tabs

Kataklysm Chords & Tabs

Version: 1 Type: Tab 0 ratings
1 star 2 stars 3 stars 4 stars 5 stars
comments

Eternal I Ritch Infinity Tab

                        KATAKLYSM-ETERNAL, I REACH INFINITY
                        From the Album DEATH ...IS JUST THE BEGINNING III
                        Copyright 1994 Nuclear Blast Records
                                                   
                        Version 1.0 - March 1999



Transcribed by: Vincent Levant
 email Vincent Levant at vlevant@nordnet.fr, for questions or corrections

Visit Malignant Tablature Dominion at 
      http://www.angelfire.com/ak2/MalignantTabs/index.html

Check Out 's Web Page, With More Transcriptions On It:
               /

Check Out DEATH WARP, With More Transcriptions On It:
               http://tiger.towson.edu/~dalvis1



/     slide up
\     slide down
p     pull on
h     hammer on
~     vibrato
.     pm



Tuning: 1 Whole Step Down

riff 1:
|-------------------------------------|
|-------------------------------------|
|-------------------------------------|
|-------------------------------------|
|-5-4-5-2---------5---------4---------|
|-3-2-3-0-0-0-0-0-3-0-0-0-0-2-0-0-0-0-|
         pm-----+  pm-----+  pm-----+

riff 2:
|---------------------------------------|
|---------------------------------------|
|---------------------------------------|
|---------------------------------------|
|-5-4-5---------------------------------|
|-3-2-3-0000000000003333333300002222222-|
       pm-----------------------------+

riff 3:
|------------------------------------------------------------|
|------------------------------------------------------------|
|------------------------------------------------------------|
|------------------------------------------------------------|
|-----------------88887777-------------------------6---5-3-2-|
|-0000000000000000--------888877770000000000000000-4---3-1-0-|
 pm----------------------------------------------+

riff 4:                   ____________1 _________2
|--------------------------------------|----------|
|--------------------------------------|----------|
|--------------------------------------|----------|
|--------------------------------------|----------|
|---------9999----8888----777766666666-|-7766-----|
|-00007777----6666----5555-------------|-----7766-|
 pm------+   pm--+   pm--+

there is a fill between riff 4&5 but very difficult to hear
[ Tab from: http://www.guitartabs.cc/tabs/k/kataklysm/eternal_i_ritch_infinity_tab.html ]
riff 5:
|-----------------|
|-----------------|
|-----------------|
|---5\4/5---5\4/7-|
|---3\2/3---3\2/5-|
|-0-------0-------|
 pm      pm

accoustic part not found sorry

riff 6:
|--------|
|--------|   the bass part not good but with a guitar
|--------|   |---------------------|
|--------|   |---------------------|
|-222222-|   |-------2---2-2-1-----| (*)=1 or 0
|-000000-|   |-0-(1)-----------2-1-|

riff 7:               sometime this     sometimes this   
|----------------------------------|------------------|
|----------------------------------|------------------|i think that the second
|----------------------------------|------------------|is that he really play
|-----------------6666666655-------|-666666665~-------|but the first part is
|-------------7777----------665555-|------------6~-5~-|more easy for me
|-000000000000---------------------|---------------|--|
 pm----------+                                     |_sometime a.h.

riff 8:
|-----------------------------------|
|-----------------------------------|
|-----------------------------------|in the last time of this riff
|--------------4--------------------|the speed change.
|-2---2---2--4-2-4-5---5---3---3----|
|-0-000-000--2---2-3-333-331-111-11-|
   pm+ pm+          pm+ pm+ pm+ pm+

riff 9:
|----------------------------|
|----------------------------| not very good but something like that
|----------------------------|
|---------4--3-----------3/4-|
|-2-2-2-2-2--1--4--3-4-3-1/2-|
|-0-0-0-0-------2--1-2-1-----|
 pm-----+           pm-+

riff 10:
|----------------------------------|
|----------------------------------|
|----------------------------------|speed part!!
|----------------------------------|i think it's good
|-00001111000033330000111100006666-|
|----------------------------------|

riff 11:
|----------------------------------|
|----------------------------------|
|----------------------------------|
|---------3322------------55554444-|
|-00000022----333333333333---------|
|----------------------------------|

play riff 10:
|-----------|
|-----------|
|-----------|make a slide with tremolo picking
|-----------|
|-000065432-|
|---------0-|
         pm

This tab is not permitted or any others off my page to by posted anywhere without
asking me in head of time. For all the time it takes me to do some of these tabs 
please ask me first, I would appreciate it, Zack Demianczyk (dio@nauticom.net)
Comments