Kataklysm - Elder God Chords & Tabs

 

Elder God Chords & Tabs

Kataklysm Chords & Tabs

Version: 1 Type: Bass Tab 0 ratings
1 star 2 stars 3 stars 4 stars 5 stars
comments

Elder God Bass Tab

KATAKLYSM
Elder God
TAB by Steve Wasylyk

One of the verses in this song...can't really tell since the music is 
constantly changing.
Play 1 right after the other

Trem Picking
Play 1
|----------------------------------
|-------------------17--15--14--15
|--12--14--15--14-----------------
|----------------------------------
[ Tab from: http://www.guitartabs.cc/tabs/k/kataklysm/elder_god_btab.html ]
Trem Picking
Play1																																|--end Trem Picking
|-----------------------------------------------------
|--------------------17--15--14--15--14--17-15-14-12
|--12--14--15--14------------------------------------
|-----------------------------------------------------

-------------------------------------------------------------------------

	I've searched the net, hoping to find lots of death metal tabs. I've 
seen about 20 and that's it. Hopefully people will start to u/l the stuff 
they've figured out. If anybody knows where stuff like this can be found, 
or has stuff to trade, exchange, give,  
please E - mail me at"
MACABRE@INTERLOG.COM

MUCH THANKS...
Comments