Kataklysm - Beyond Salvation Chords & Tabs

 

Beyond Salvation Chords & Tabs

Kataklysm Chords & Tabs

Version: 1 Type: Tab 0 ratings
1 star 2 stars 3 stars 4 stars 5 stars
comments

Beyond Salvation Tab

   
Tuning: 2.5 steps down

Keys:
  x  - mute
 / \ - slide
 ___ - palm mute
  "  - tremelo pick
  p  - pull off
  h  - hammer on


INTRO:

|-------------------------------|
|-------------------------------|
|-------------------------------|
|-3-2-5--x--x--3-2-5--xxx--xxx--|
|-3-2-5--x--x--3-2-5--xxx--xxx--|
|-1-0-3--x--x--1-0-3--000--000--| 2x
                      ___  ___


RIFF A:

|------------------------------------------------------------------|
|------------------------------------------------------------------|
|------------------------------------------------------------------|
|-3\2---2---------5\2---2---------2-----2---------3-3-3-3----------|
|-3\2---2---------5\2---2---------0-0-0-0--000000-1-1-1-1-11111111-|
|-1-0-0-0--000000-3-0-0-0--000000----------------------------------| 2x
      _    ______     _    ______   ___    ______   ______________


RIFF B:

|---------------------------------------------------------|
|---------------------------------------------------------|
|---------------------------------------------------------|
|-2"------4"-5"-4"-5"------0"-2"-0"-2"--------0"----4"----|
|-----------------------------------3"--------2"----5"----|
|---------------------------------------------------------| 4x


RIFF C:

|---------------------------------------------------|
|---------------------------------------------------|
|---------------------------------------------------|
|-2222-5-2222-5-2222-5p4----2222-5-2222-5-2222------|
|------------------------5---------------------5422-|
|---------------------------------------------------|
  ____   ____   ____        ____   ____   _________

 ----------------------------------------------|
 ----------------------------------------------|
 ----------------------------------------------|
 -2222-5-2222-5-2222-5p4-----------------------|
 ------------------------5--00000000-5-0000000-|
 ----------------------------------------------| 2x
  ____   ____   ____        __________________
[ Tab from: http://www.guitartabs.cc/tabs/k/kataklysm/beyond_salvation_tab.html ]
(Gtr 1)
|---------------------------------------------------|
|---------------------------------------------------|
|---------------------------------------------------|
|-2222-5-2222-5-2222-5p4----2222-5-2222-5-2222------|
|------------------------5---------------------5422-|
|---------------------------------------------------|
  ____   ____   ____        ____   ____   _________

 ----------------------------------------------|
 ----------------------------------------------|
 ----------------------------------------------|
 -2222-5-2222-5-2222-5p4-----------------------|
 ------------------------5--00000000-5-0000000-|
 ----------------------------------------------|
  ____   ____   ____        __________________

(Gtr 2)
|---------------------------------------------------|
|---------------------------------------------------|
|---------------------------------------------------|
|-6666-9-6666-9-6666-9p8----6666-9-6666-9-6666------|
|------------------------9---------------------9866-|
|---------------------------------------------------|
  ____   ____   ____        ____   ____   _________

 ----------------------------------------------|
 ----------------------------------------------|
 ----------------------------------------------|
 -6666-9-6666-9-6666-9p8-------------4---------|
 ------------------------9--44444444---4444444-|
 ----------------------------------------------| 2x
  ____   ____   ____        __________________


FILL:

|-------------|
|-------------|
|-------------|
|-2--2--2--2--|
|-2--2--2--2--|
|-0--0--0--0--|


INTRO - 2x


RIFF A - 4x


RIFF D:

|------------------------------------------------------------------------|
|------------------------------------------------------------------------|
|-----------------------------------10-----------4---4---------7-8p7---7-|
|-----7-9-10--9h10p9-7-------7-10p7----7-----2-5---5---5-----9-------0---|
|---7--------------------7-8---------------2---------------7-------------|
|-0--------------------0-----------------0---------------0---------------| 6x
  _______              _______           _______         _______


RIFF B - 5x


RIFF C


FILL


INTRO


RIFF A - 4x


OUTRO:

|-------------------|
|-------------------|
|-------------------|
|-2--2--2--2--3-2-5-|
|-2--2--2--2--3-2-5-|
|-0--0--0--0--1-0-3-|
Comments