Kataklysm - Ambassador Of Pain Chords & Tabs

 

Ambassador Of Pain Chords & Tabs

Kataklysm Chords & Tabs

Version: 1 Type: Tab 0 ratings
1 star 2 stars 3 stars 4 stars 5 stars
comments

Ambassador Of Pain Tab

   
.  - palm mute           /  - slide up to
\  - slide down to       ~  - vibrato
h  - hammer on           b  - Bend
p  - pull off            Suffixes for bend
t  - tap                 f  - full bend    h - half bend
ph - pinched harmonic    q  - quarter bend t - tap bend
*  - see comment         ^  - Hold bend    r release bend
x  - Stuccatto           ~  - vibrato bend
,  - slight palm mute    () - ghost note, sustained note
"  - tremolo note        <> - Trill

Tunning B E A D F# B


Riff1
|------------------------------------------------------------------------|
|------------------------------------------------------------------------|
|------------------------------------------------------------------------|
|------------------------------------------------------------------------|
|-1-1-1-1-1-1--1-2-0-0--1-1-1-1-1-1--1\6-0-1-1-1-1-1-1--1-2-0-0--1--0--1-|
|-1-1-1-1-1-1--1-2-0-0--1-1-1-1-1-1--1\6-0-1-1-1-1-1-1--1-2-0-0--1--0--1-|

[ Tab from: http://www.guitartabs.cc/tabs/k/kataklysm/ambassador_of_pain_tab.html ]
 Riff2 play 4 times
|---------------------------------|
|---------------------------------|
|---------------------------------|
|---------------------------------|
|--p---p---p---p---p---p---p---p--|
|-1-0-1-0-1-0-1-0-1-0-1-0-1-0-2-0-|


Riff3 play 4 times
|--------------------------------------------|
|--------------------------------------------|
|--------------------------------------------|
|--------------------------------------------|
|-0-0--0-1\6-0-0--1\6-0-0-1\6--666655558888--|
|-0-0--0-1\6-0-0--1\6-0-0-1\6----------------|


 Riff4 play 4 times
|----------------------------------|
|----------------------------------|
|----------------------------------|
|----------6---------------------6-|
|0-3-5-0-3-4-0-3-5-0-6-0-3-5-0-3-4-|
|0-1-3-0-1---0-1-3-0-4-0-1-3-0-1---|


play riff1
play riff2 4 times
play riff3 4 times


 Riff5         Riff6 play 8 times
|-------------|--------------------------|
|-------------|--------------------------|
|-------------|--------------------------|
|-------------|----------------------3\5-|
|-2----2---\--|--0-0-0-0-3\5-0-7-5-0-1\3-|
|-0----0---\--|--0-0-0-0-1\3-0-5-3-0-----|

play riff4 4 times
play riff2 4 times
play riff6 4 times
Comments