Kashmir - Undisturbed Chords & Tabs

 

Undisturbed Chords & Tabs

Kashmir Chords & Tabs

Version: 1 Type: Tab 0 ratings
1 star 2 stars 3 stars 4 stars 5 stars
comments

Undisturbed Tab

   
    ________________
   / Kashmir       /  I think this little sweet song is about a person who
  / Undisturbed   /  isolates himself, and describes the feeling of being
 / Home Dead EP  /  totally uninfluenced by disturbing moods like hate,
/_______________/  anger or stress. I wish I was able do so :p



Forspil:
  C/e       /d      /c                /e        /d      /c
|-----------------------------------|-----------------------------------|
|-1---1-1-1-1-1-1-1-1-1-1-1-1-1-1-1-|-1---1-1-1-1-1-1-1-1-1-1-1-1-1-1-1-|
|-0---0-0-0-0-0-0-0-0-0-0-0-0-0-0-0-|-0---0-0-0-0-0-0-0-0-0-0-0-0-0-0-0-|
|-0h2-2-2-2-0-0-0-0-x-x-x-x-x-x-x-x-|-0h2-2-2-2-0-0-0-0-x-x-x-x-x-x-x-x-|
|-------------------3-3-3-3-3-3-3-3-|-------------------3-3-3-3-3-3-3-3-|
|-----------------------------------|-----------------------------------|



Første & Tredje Vers:
  C/e       /d      /c                /e        /d      /c
|-----------------------------------|-----------------------------------|
|-1---1-1-1-1-1-1-1-1-1-1-1-1-1-1-1-|-1---1-1-1-1-1-1-1-1-1-1-1-1-1-1-1-|
|-0---0-0-0-0-0-0-0-0-0-0-0-0-0-0-0-|-0---0-0-0-0-0-0-0-0-0-0-0-0-0-0-0-|
|-0h2-2-2-2-0-0-0-0-x-x-x-x-x-x-x-x-|-0h2-2-2-2-0-0-0-0-x-x-x-x-x-x-x-x-|
|-------------------3-3-3-3-3-3-3-3-|-------------------3-3-3-3-3-3-3-3-|
|-----------------------------------|-----------------------------------|


  Dm      /c      Bbmaj7  Am        G               G7
|-1-1-1-1-1-1-1-1-----------------|-----------------1-1-1-1-1-1-1-1-|
|-3-3-3-3-3-3-3-3-3-3-3-3-1-3-1-1-|-0-0-0-0-0-0-0-0-0-0-0-0-0-0-0-0-|
|-2-2-2-2-2-2-2-2-2-2-2-2-2-2-2-2-|-0-0-0-0-0-0-0-0-0-0-0-0-0-0-0-0-|
|-0-0-0-0-x-x-x-x-0-0-0-0-2-2-2-2-|-0-0-0-0-0-0-0-0-0-0-0-0-0-0-0-0-|
|---------3-3-3-3-1-1-1-1-0-0-0-0-|-2-2-2-2-2-2-2-2-2-2-2-3-0-3-2-3-|
|---------------------------------|-3-3-3-3-3-3-3-3-3---------------|


[ Tab from: http://www.guitartabs.cc/tabs/k/kashmir/undisturbed_tab.html ]
Andet & Fjerde Vers:
  c       /G      /c      /b        Am    /G        Bbsus2
|-0-0-0-0-0-0-0-0-0-0-0-0-0-0-0-0-|-----------------1-1-1-1-1-1-1-1-|
|-1-1-1-1-1-1-1-1-1-1-1-1-1-1-1-1-|-1-1-1-1-1-1-1-1-1-1-1-1-1-1-1-1-|
|-0-0-0-0-0-0-0-0-0-0-0-0-0-0-0-0-|-2-2-2-2-2-2-2-2-3-3-3-3-3-3-3-3-|
|-2-2-2-2-2-2-2-2-2-2-2-2-2-2-2-2-|-2-2-2-2-2-2-2-2-3-3-3-3-3-3-3-3-|
|-3-3-3-3-x-x-x-x-3-3-3-3-2-2-2-2-|-0-0-0-x-x-x-x-x-1-1-1-1-1-1-1-1-|
|---------3-3-3-3-----------------|-------3-3-3-3-3-----------------|


  Dm      /c      Bbmaj7  Am        G               G7                 
|-1-1-1-1-1-1-1-1-----------------|-----------------1-1-1-1---------|
|-3-3-3-3-3-3-3-3-3-3-3-3-1-3-1-1-|-0-0-0-0-0-0-0-0-0-0-0-0-0-1-0-0-|
|-2-2-2-2-2-2-2-2-2-2-2-2-2-2-2-2-|-0-0-0-0-0-0-0-0-0-0-0-0-0-0-0-0-|
|-0-0-0-0-x-x-x-x-0-0-0-0-2-2-2-2-|-0-0-0-0-0-0-0-0-0-0-0-0-0-0-0-0-|
|---------3-3-3-3-1-1-1-1-0-0-0-0-|-2-2-2-2-2-2-2-2-2-2-2-3-0-3-2-3-|
|---------------------------------|-3-3-3-3-3-3-3-3-3---------------|



Omkvæd:
  F       Fadd#11 F                 Am      /g#     /G      /f# /e
|-1-1-1-1-1-1-1-1-1-1-1-1-1-1-1-1-|---------------------------------|
|-1-1-1-1-1-1-1-1-1-1-1-1-1-3-1-1-|-5-5-5-5-5-5-5-5-5-5-5-5-5-5-5-5-|
|-2-2-2-2-4-4-4-4-2-2-2-2-2-2-2-2-|-5-5-5-5-5-5-5-5-5-5-5-5-5-5-5-5-|
|-3-3-3-3-3-3-3-3-3-3-3-3-3-3-3-3-|-7-7-7-7-6-6-6-6-5-5-5-5-4-4-2-0-|
|---------------------------------|---------------------------------|
|---------------------------------|---------------------------------|


  D7      D7sus4add13 D7            G       Fb5     Em      G7
|-2-2-2-2-3-3-3-3-2-2-2-2-3-3-2-2-|-3-3-3-3-1-1-1-1-0-0-0-0-1-1-1-1-|
|-1-1-1-1-1-1-1-1-1-1-1-1-1-1-1-1-|-0-0-0-0-0-0-0-0-0-0-0-0-0-0-0-0-|
|-2-2-2-2-4-4-4-4-2-2-2-2-4-4-2-2-|-4-4-4-4-2-2-2-2-0-0-0-0-0-0-0-0-|
|-0-0-0-0-0-0-0-0-0-0-0-0-0-0-0-0-|-5-5-5-5-3-3-3-3-2-2-2-2-0-0-0-0-|
|---------------------------------|---------------------------------|
|---------------------------------|---------------------------------|



Efterspil:
  Am              Dm                F               G
|-0-------0-------1-------1-------|---------------------------------|
|-1-------1-------3-------3-------|-1---------------0---------------|
|-2-------2-------2-------2-------|-2---------------0---------------|
|-2-------2-------0-------0-------|-3---------------0---------------|
|-0-------0-----------------------|-3---------------2---------------|
|---------------------------------|-----------------3---------------|



- 10th /December /05
Just mail me at Maitinin@gmail.com with questions, comments or corrections!
Comments