Kashmir - The Ghost Of No One Chords & Tabs

 

The Ghost Of No One Chords & Tabs

Kashmir Chords & Tabs

Version: 1 Type: Tab 0 ratings
1 star 2 stars 3 stars 4 stars 5 stars
comments

The Ghost Of No One Tab

Artist: Kashmir
Song: the ghost of no one 
Album: Home dead ep.
Tabbed by: Ertner


INTRO

e------------------------- ------------------ ------------
h-----0-----0-----0-----0- ----0-----0-----0- ----3-----5-
g----5-----5-----5-----5-- ---5-----5-----5-- --4-----4---
d---7-----7-----7-----7--- --7-----3-----3--- -2-2---2-2--
a--8-----7-----8-----7---- -6-----5-----2---- ------------
e------------------------- ------------------ ------------
The good is yet to come...

Chours
e--------12----12----12------- -g- -------11----11----11------- -g-
h----10----10----10----10--10- -e- ---10----10----10----10--10- -e-
g--12--12----12----12----12--- -n- -11--11----11----11----11--- -n-
d----------------------------- -t- ---------------------------- -t-
a----------------------------- -a- ---------------------------- -a-
e----------------------------- -g- ---------------------------- -g-
Don´t fear the ghost of...
[ Tab from: http://www.guitartabs.cc/tabs/k/kashmir/the_ghost_of_no_one_tab.html ]
e--------10----10----10------- -g- -----10---10---10---10----9---9---9-----
h----10----10----10----10--10- -e- --10---10---10---10----10--10--10--10-10
g--10--10----10----10----10--- -n- -9--9----9----9----9--9--9---9---9---9--
d----------------------------- -t- ----------------------------------------
a----------------------------- -a- ----------------------------------------
e----------------------------- -g- ----------------------------------------

Musical interlude
e---------------------------------------------------------------- --
h---------------------------------------------------------------- --
g------9------9------7------9^7-------7------7------5------4^5--- --
d----7---7------7------7--------7---7---7------7------7--------7- --
a--8--------8------8------8-------7--------7------7------7------- --
e---------------------------------------------------------------- --

e---------------------------------------------------------------- --
h---------------------------------------------------------------- --
g------5------5------4------5^4-------4------4------2-------2---- --
d----3---3------3------3--------3---2---2------2------2-------2-- --
a--5--------5------5------5-------5--------5------3------3------- --
e---------------------------------------------------------------- --

Oktavér herefter de 2 ovenstående linjer!(sorry, but i am not the best at english)
Comments