Kashmir - Rose Chords & Tabs

 

Rose Chords & Tabs

Kashmir Chords & Tabs

Version: 1 Type: Bass Tab 0 ratings
1 star 2 stars 3 stars 4 stars 5 stars
comments

Rose Bass Tab

   
Kashmir - Rose Bass tabs
Made by Kalle2tal

I don't think it's 100% correct, but almost.
Listen to the song while playing if you want to play perfect.

Standard tuning (G D A E)

Intro (keep quiet)

Vers B (00:23)

G|--------------------------|--------------------------|
D|0-0--12h14-12----12-14/15-|0-0--12h14----12p10-------|
A|--------------12----------|-----------12-------12----|
E|-1------------------------|-1------------------------|

G|--------------------------|--------------------------|
D|-----7--------7-----------|-----7-----7--77----------|
A|-0-0--0--0-00--0----------|-0-0--0--0---0------------|
E|--------------------------|--------------------------|

G|--------------------------|--------------------------|
D|------5-------------------|--------4-----------------|
A|--------------------------|--------------------------|
E|--3~----------------------|--2~----------------------|

G|--------------------------|--------------------------|
D|--------------------------|--------------------------|
A|--------------------------|--------------------------|
E|--1-----------------------|--------------------------|

1st Vers

G|--------------------------|--------------------------|
D|--------------------------|--------------------------|
A|-0-0---0------------------|-0-0---0------------------|
E|-----0--------------------|-----0----------------x56-|
			  (Listen closely and you'll hear)

G|--------------------------|--------------------------|
D|-------4------------------|--------------------------|
A|-2-2----------------------|-2-2---2---------------22-|
E|-----2--------------------|-----2--------------------|

G|--------------------------|--------------------------|
D|--------------------------|--------------------------|
A|-0-0---0------------------|-0-0---0------------------|
E|-----0--------------------|-----0--------------------|

G|----------------------4---|--------------------------|
D|-------4---------------4--|--------------------------|
A|-2-2----------------------|-2-2---2---------------22-|
E|-----2--------------------|-----2--------------------|

Vers B

G|--------------------------|--------------------------|
D|0-0--12h14-12----12-14/15-|0-0--12h14----12p10-------|
A|--------------12----------|-----------12-------12----|
E|-1------------------------|-1------------------------|

G|--------------------------|--------------------------|
D|-----7--------7-----------|-----7-----7--77----------|
A|-0-0--0--0-00--0----------|-0-0--0--0---0------------|
E|--------------------------|--------------------------|

G|--------------------------|--------------------------|
D|------5-------------------|--------4-----------------|
A|--------------------------|--------------------------|
E|--3~----------------------|--2~----------------------|

G|--------------------------|--------------------------|
D|--------------------------|--------------------------|
A|--------------------------|--------------------------|
E|--1-----------------------|--------------------------|

1st Chorus

G|--------------------------|--------7---7-------------|
D|----------7---------------|--------------------------|
A|--0-----0---0-------------|------5---5------5--3--2--|
E|--------------------------|-1------------------------|

G|--------------------------|--------------------------|
D|----------7---------------|--------------------------|
A|--0-----0---0-------------|------5-5-----------------|
E|--------------------------|-1------------------------| x2

1st solo

G|--------------------------|--------------------------|
D|--------------------------|--------------------------|
A|-0-0---0------------------|-0-0---0------------------|
E|-----0--------------------|-----0----------------x56-|

G|--------------------------|--------------------------|
D|--------------------------|---4/6-4-6p4--------------|
A|-2-2---2------------------|-2--------------------2p0-|
E|-----2--------------------|--------------------------|

G|--------------------------|--------------------------|
D|--------------------------|--------------------------|
A|-0-0---0------------------|-0-0---0------------------|
E|-----0--------------------|-----0----------------x56-|

G|--------------------------|--------------------------|
D|-------------6h8p6\4------|------4h6p4---------------|
A|-2-----2-4/6---------6----|-2-2----------------------|
E|---2h4--------------------|--------------------------|

Vers 2

G|--------------------------|--------------------------|
D|--------------------------|--------------------------|
A|-0-0---0------------------|-0-0---0------------------|
E|-----0--------------------|-----0----------------x56-|
[ Tab from: http://www.guitartabs.cc/tabs/k/kashmir/rose_btab.html ]
G|--------------------------|--------------------------|
D|-------4------------------|--------------------------|
A|-2-2----------------------|-2-2---2------------------|
E|-----2--------------------|-----2--------------------|

G|--------------------------|--------------------------|
D|--------------------------|--------------------------|
A|-0-0---0------------------|-0-0---0------------------|
E|-----0--------------------|-----0--------------------|

G|--------------------------|--------------------------|
D|--------------------------|--------------------------|
A|-2-2---2------------------|-2------------------------|
E|-----2--------------------|--------------------------|

Vers B

G|--------------------------|--------------------------|
D|0-0--12h14-12----12-14/15-|0-0--12h14----12p10-------|
A|--------------12----------|-----------12-------12----|
E|-1------------------------|-1------------------------|

G|--------------------------|--------------------------|
D|-----7--------7-----------|-----7-----7--77----------|
A|-0-0--0--0-00--0----------|-0-0--0--0---0------------|
E|--------------------------|--------------------------|

G|--------------------------|--------------------------|
D|------5-------------------|--------4-----------------|
A|--------------------------|--------------------------|
E|--3~----------------------|--2~----------------------|

G|--------------------------|--------------------------|
D|--------------------------|--------------------------|
A|--------------------------|--------------------------|
E|--1-----------------------|--------------------------|

Heavy part 1

G|--------------------------|--------------------------|
D|--------------------------|--------------------------|
A|----------5-5-5-5-5-5-5-5-|----------5-5-5-5-5-5-5-5-|
E|--5--5-3-3----------------|--5--5-3-3----------------|

G|--------------------------|
D|--------------------------|
A|----------5-5-----3-------|
E|--5--5-3-3----1-1---------|

2nd Chorus

G|--------------------------|-------7---7--------------|
D|------7-----7-------------|--------------------------|
A|--0-0--0--0---0-----------|-----5---5---5-5-5-5------|
E|--------------------------|-1------------------------|

G|--------------------------|--------------------------|
D|--------------------------|--------------------------|
A|--3-3-3-3-3-3-3-3-3-3-3-3-|-/8--5-5------------------|
E|--------------------------|--------------------------| x2

2nd Solo

G|--------------------------|-------7---7--------------|
D|------7-----7-------------|--------------------------|
A|--0-0--0--0---0-----------|-----5---5---5-5-5-5------|
E|--------------------------|-1------------------------|

G|--------------------------|--------------------------|
D|--------------------------|--------------------------|
A|--3-3-3-3-3-3-3-3-3-3-3-3-|-/8--5-5------------------|
E|--------------------------|--------------------------|

G|--------------------------|-------7---7--------------|
D|------7-----7-------------|--------------------------|
A|--0-0--0--0---0-----------|-----5---5---5-5-5-5------|
E|--------------------------|-1------------------------|

G|--------------------------|--------------------------|
D|--------------------------|--------------------------|
A|--3--5--11--10--9---------|--8--5-5------------------|
E|--------------------------|--------------------------|

Quiet Part
G|--------------------------|--------------------------|
D|--------------------------|--------------------------|
A|--------------------------|-7/12---------------------|
E|--------------------------|--------------------------|

G|--------------------------|--------------------------|
D|--------------------------|--------------------------|
A|--------------------------|--------------------------|
E|--------------------------|--------------------------|

Heavy part 2

G|--------------------------|--------------------------|
D|--------------------------|--------------------------|
A|----------5-5-5-5-5-5-5-5-|----------5-5-5-5-5-5-5-5-|
E|--5--5-3-3----------------|--5--5-3-3----------------|

G|--------------------------|
D|--------------------------|
A|----------5-5-----3-------|
E|--5--5-3-3----1-1---------|

3rd Chorus

G|--------------------------|-------7---7--------------|
D|------7-----7-------------|--------------------------|
A|--0-0--0--0---0-----------|-----5---5---5-5-5-5------|
E|--------------------------|-1------------------------|

G|--------------------------|--------------------------|
D|--------------------------|--------------------------|
A|--3-3-3-3-3-3-3-3-3-3-3-3-|-/8--5-5------------------|
E|--------------------------|--------------------------| x2
		(slow 2nd time)

Ending

G|--------------------------|--------------------------|
D|--------------------------|--------------------------|
A|-/12----------------------|--------------------------|
E|--------------------------|--------------------------|
Comments