Kashmir - Petite Machine Chords & Tabs

 

Petite Machine Chords & Tabs

Kashmir Chords & Tabs

Version: 1 Type: Tab 0 ratings
1 star 2 stars 3 stars 4 stars 5 stars
comments

Petite Machine Tab

   
Kashmir - Petite Machine

Tabbed by Andreas Ravn Nielsen

Intro:

After six rounds the guitar slides in

E----------------------------------------------------------------|
B---10-------13--11-10---------10--11--10-------10---------------|
G------12-10-----------10---10----------- 12-10---10-------9-10--|
D-------------------------12------------------------10--10-------|
A-----------------------------------------------------12---------|
E----------------------------------------------------------------|

E------------10-12-10--------------------------------------------|
B---10---10----------------10-11-10--10--------------------------|
G-----12-------------10-12---------12--10---12---9--10-----------|
D-----------------------------------------12--12-----------------|
A----------------------------------------------------------------|
E----------------------------------------------------------------|

Chorus

      Dm  C    Am  Bb   Dm  C  Bb  F    C   A7
E------5-----3-----3---1----5----3---1---1---3---5--|
B-----6-----5-----5---3----6----5---3---1---5---5---|
G----7-----5-----5---3----7----5---3---2---5---6----|   x 2
D---------------------------------------------------|
A---------------------------------------------------|
E---------------------------------------------------|


2. verse
[ Tab from: http://www.guitartabs.cc/tabs/k/kashmir/petite_machine_tab.html ]
   Dm    C    Bb   F       C    Gm   F       A
E--------------------------------------------------|
B----10----10--10----------8----11---10----10------|
G---10----10--10---10---10---12----10----9---------|
D--12----10---8----10---10---12----10---10---------|   x 2
A--------------------8-----------------------------|
E--------------------------------------------------|


Solo

E------------------------------------------10-----------------------|
B--10--10--10--13--10--11--10-11---------10--10-10-10-10-10-10------|
G--10--10--10--10--10--10--10-10-12-10---10-----12-13-14-13-12-10---|
D-------------------------------------12-------------------------12-|
A-------------------------------------------------------------------|
E-------------------------------------------------------------------|

E---------------------------------|
B------11-10---11-10--------------|
G-10----------------10-9----------|
D---12------12--------------------|
A---------------------------------|
E---------------------------------|


E--10---10---12---13--12---13--8--10--8----8-----8---8-----8---8-8--|
B--10---10--10---10--10---10---8--8---8--8--8---8------8-------8-8--|
G----------------------------------------9----10---10----10-10-9-9--|
D-------------------------------------------------------------------|
A-------------------------------------------------------------------|
E-------------------------------------------------------------------|

The rest of the solo is easy to find out, but mail me if you need it

It's not completely correct but I hope it will give you an idea.
If you have some corrections, then mail me at andreas.jam@newmail.dk

Enjoy!!!
Comments