Kashmir - Mom In Love Daddy In Space Chords & Tabs

 

Mom In Love Daddy In Space Chords & Tabs

Kashmir Chords & Tabs

Version: 1 Type: Tab 2 ratings
1 star 2 stars 3 stars 4 stars 5 stars
comments

Mom In Love Daddy In Space Tab

   
Kashmir - Mom In Love, Daddy In Space.


verse

    Am                                      E7
e|--------------------------------------------------------------
B|-------1---------1---------0---------0---------0---------0----
G|-----2---2-----2---2-----2---2-----2---2-----1---1-----1---1--
D|------------------------------------------0---------0---------
A|--0---------0---------2---------2-----------------------------
E|--------------------------------------------------------------
 
                      F
e|--------------------------------------------------------------
B|---------------------------------------------0---------0------
G|------2--------2---------2---------2-------2---2-----2---2----
D|----2---2----2---2-----3---3-----3---3------------------------
A|--3--------3--------3---------3---------2---------2-----------
E|--------------------------------------------------------------

e|------------------------------0---------|
B|------0---------0---------0-------0-----|
G|----0---0-----0---0-----1---1---1---1---|
D|----------------------------------------|
A|----------------------------------------|
E|--3--------3----------0-----------------|


Verse 1 (spil det øverste)

Walking bones
choose your own direction
go have fun
some place else.

Bring your soul
and your beach boys records
I can't stand
to have you here.

So worn out
cold and dehydrated
the fortune is spent
and dad is in space  


Omkvæd
[ Tab from: http://www.guitartabs.cc/tabs/k/kashmir/mom_in_love_daddy_in_space_tab.html ]
A                 Em            d
Every home should have a mom in love
      A        E
and a daddy in space.
A                 Em
Chinese porcelain cats
             d
to guard her love
       A      E
in the window space
F
show her some respect
      G
she's all worn down



verse 2

For years to come
I will not forget you
as my son
as my pain.

Time will heal
what bow feels so wounded
tears are spilled
and the holes will fill.


Omkvæd

A                 Em            d
Every home should have a mom in love
      A        E
and a daddy in space.
A                 Em
Chinese porcelain cats
             d
to guard her love
       A      E
in the window space

---------------------
F
show her some respect
      G        A
she's all worn down

----------------------- Skal gentages 3 gange og så omkvæd igen.


Solo 

e|--------------------------------------------------|
B|--------------------------------------5-----------|
G|--------4--6--------4--6--------4--6-----7--6--4--|
D|--6--7--------6--7--------6--7--------------------|
A|--------------------------------------------------|
E|--------------------------------------------------|


Afslutter på D


Intro
verse 1
omkvæd
verse 2
omkvæd
solo
outro


Comments