Kashmir - Lampshade Chords & Tabs

 

Lampshade Chords & Tabs

Kashmir Chords & Tabs

Version: 1 Type: Bass Tab 0 ratings
1 star 2 stars 3 stars 4 stars 5 stars
comments

Lampshade Bass Tab

Artist: Kashmir
Song: Lampshade
Album: The good life
Bass by. Mads Tunebjerg
Tabbed by: Ertner.


Okay.... Here it is. the song we have waited for in so long time. 

[ Tab from: http://www.guitartabs.cc/tabs/k/kashmir/lampshade_btab.html ]
Start playing about 3:45 in the song 
"Intro" (low)
G|--------------------
D|----------------5-5-
A|-------------5------
E|-3-3--3-3--3--------
Riff 1:
G|-----------------------------------------------
D|-----------------------------------------------   x2
A|-5-5--4-4-----2-2--1-1--0-0--1-1--2-2--3-3-4-4-
E|----------3-3----------------------------------
Riff 2:
G|------7------------------------------------------------------------
D|-------------------------------------------------------------------
A|-5-5----5--4-4-----2-2---2-1-1---1-0-0---0-1-1---1-2-2---2-3-3-4-4-
E|---------------3-3-------------------------------------------------
Riff 3:
G|-----------------------------------------------------------------
D|-----------------------------------------------------------------
A|-5-5-5-5-4-4-----2-2-2-2-1-1-1-1-0-0-0-0-1-1-1-1-2-2-2-2-3-3-4-4-
E|-------------3-3-------------------------------------------------
Riff 4:
G|------------------------
D|------------------------  x3
A|-5--4--2--0--------2----
E|-------------4--0-----4-
Outro: (low)
G|---------------
D|---------------
A|----0--1--3--5-
E|-3-------------
Comments