Kasabian - Reason Is Treason Chords & Tabs

 

Reason Is Treason Chords & Tabs

Kasabian Chords & Tabs

Version: 1 Type: Chords 0 ratings
1 star 2 stars 3 stars 4 stars 5 stars
comments

Reason Is Treason Chords

   
www.kasabian.co.uk (official website)
debut album reached no.4 in UK album chart

-----------------------------------------------------------------------------
			     Reason Is Treason - Kasabian
-----------------------------------------------------------------------------
Tabbed by: tom	
Email: lazystudentboy@hotmail.com

Tuning: Standard

these are the only four chords in the song
[ Tab from: http://www.guitartabs.cc/tabs/k/kasabian/reason_is_treason_crd.html ]
	Bm    F#m    Am     A#m
E|------7------2------5------6------|
B|------7------2------5------6------|
G|------7------2------5------6------|
D|------9------4------7------8------|
A|------9------4------7------8------|
E|------7------2------5------6------|


the intro is Bm and so are all of the instrumental parts. listen the he song and its dead easy to play
Comments