Kasabian - Processed Beats Chords & Tabs

 

Processed Beats Chords & Tabs

Kasabian Chords & Tabs

Version: 1 Type: Tab 0 ratings
1 star 2 stars 3 stars 4 stars 5 stars
comments

Processed Beats Tab

                    K A S A B I A N - P R O C E S S E D  B E A T S;;x

This song is proper hectic. It's a shame there isn't more Kasabian tabs on Ultimate
Guitar, as they are such a good band. Here I've tabbed out the Bass tab and the guitar.
Enjoy, yeah? Kthnx.

By Jimmy McIntosh

e|---------------------------------------------------------------------------|
B|---------------------------------------------------------------------------|
G|---------------------------------------------------------------------------|
D|---------------------------------------------------------------------------|
A|----7-8-7-9-9-7-9----------------------------------------------------------|
E|--9------------------------------------------------------------------------|

That's the bass, obviously it's played all through out the song, apart from the
breakdown. As the band use synthesisers, this song won't very good unless your band is
fully equipped with bass, guitar, drums and keyboard with a synth.
[ Tab from: http://www.guitartabs.cc/tabs/k/kasabian/processed_beats_tab.html ]
e|---------------------------------------------------------------------------|
B|---------------------------------------------------------------------------|
G|---------------------------------------------------------------------------|
D|---4444444-----------------------------------------------------------------|
A|---4444444-----------------------------------------------------------------|
E|---2202022-----------------------------------------------------------------|

This riff is repeated throughout the song, play it with a clean tone, with delay. It
is of course played by the brilliant Serge Pizzorno. If you want you can have another
distorted guitarist playing the bass riff, to add for the Kasabian like effect.

e|---------------------------------------------------------------------------|
B|-----3---------------------------------------------------------------------|
G|----4-4----4------3-----6--------------------------------------------------|
D|---4------5-5----4-4---7--7------------------------------------------------|
A|--2------5------4-----7----------------------------------------------------|
E|--------3------2-----5-----------------------------------------------------|

This is the acoustic-esque breakdown section, which is followed by

e|---------------------------------------------------------------------------|
B|---------------------------------------------------------------------------|
G|---------------------------------------------------------------------------|
D|---4444444-----------------------------------------------------------------|
A|---4444444-----------------------------------------------------------------|
E|---2202022-----------------------------------------------------------------|

Which is played with a heavy flange effect, and distorted. Ideally if your guitar is
augmented with a synth then that would obviously be the best option, as this is how
it is played on the song.
Comments