Kasabian - Club Foot Chords & Tabs

 

Club Foot Chords & Tabs

Kasabian Chords & Tabs

Version: 3 Type: Bass Tab 0 ratings
1 star 2 stars 3 stars 4 stars 5 stars
comments

Club Foot Bass Tab

if i write (x8) or whatever after note it dont mean harmonics it
 means u play it that many times

standard tuning
G:---10---10h12-10-8-10-8-------8-10-8------------------|
D:--8---------------------10------------10------8-10-10-|
A:-----------------------------------------8--10--------|
E:------------------------------------------------------|

G:----8-10-8-------------------8----10----12--|
D:-----------10------8-10---10---10----10-----|
A:--------------8--10-------------------------|
E:--------------------------------------------|
[ Tab from: http://www.guitartabs.cc/tabs/k/kasabian/club_foot_btab_ver_3.html ]
(eighths now i think) well 16 notes in a bar :S
G:-12(x8)-10-12(x7)-8(x2)-10(x12)-15(x4)-17(x4)--|
D:-----------------------------------------------|
A:-----------------------------------------------|
E:-----------------------------------------------|

RELE RELE FAST, wel exactly twice as fast as it was above
it all has to fit into 4 beats so use a pick lol

G: -19(x8)-17(x8)-15(x8)-12(x8)-10(x8)-12(x8)-10(x8----|8(x8)
D:-----------------------------------------------------|
A:-----------------------------------------------------|
E:-----------------------------------------------------|
Comments