Kasabian - Butcher Blues Chords & Tabs

 

Butcher Blues Chords & Tabs

Kasabian Chords & Tabs

Version: 1 Type: Tab 0 ratings
1 star 2 stars 3 stars 4 stars 5 stars
comments

Butcher Blues Tab

This is definitely right besides a few notes that im slightly unsure of in the chorus, 
free 2 leev ne suggestions as comments
101010= 10 10 10 very quick 2gether
1-0-1-0= 1 0 1 0 1
main riff(bass)(right through song)
G:|------------------------------------|
D:|-----------8--101010-8--------------|
A:|-------8--10-----------10-8---------|
E:|--8--8-----------------------13\----|
[ Tab from: http://www.guitartabs.cc/tabs/k/kasabian/butcher_blues_tab.html ]
chorus (synth but can be played on guitar)
(when he goes: 'i just cant stop losing control', guitar same rhythm as singing)
E:------------------------------------|
B:------------------------------------|
G:------------------------------------|
D:------------------------------------|
A:---------6-8-6-10-10----------------|
E:-8-8-8-8----------------------------|

E:-------------------------------------|
B:-------------------------------------|
G:-------------------------------------|
D:-------------------------------------|
A:--10-10-10-13-10-8-6-8-10-6----------|
E:------------------------------8------|

Break(distorted analog synth)
E:-----------------------------------|
B:-----------------------------------|
G:-----------------------------------|
D:-----------------------------------|   repeat until end of song
A:--13h15 13h15 15-------------------|
E:-----------------------------------|

any comments or suggestions use comment because last time i put my email here i got 
of strangers adding me lol
Comments