Kapitulation Bonn - Weberlied Chords & Tabs

 

Weberlied Chords & Tabs

Kapitulation Bonn Chords & Tabs

Version: 1 Type: Tab 0 ratings
1 star 2 stars 3 stars 4 stars 5 stars
comments

Weberlied Tab

DAS WEBERLIED by KAPITULATION B.o.N.n. 
Tabbed by Purplefly (purplefly@gmx.net)


:
# intro/Bridge
E------------------------------------------------------------------|
B------------------------------------------------------------------|
G------------------------------------------------------------------|
D--7---7---7---7---3---3---5---5---7---7---7---7---3---3---5---5---|
A--7---7---7---7---3---3---5---5---7---7---7---7---3---3---5---5---|
E--5---5---5---5---1---1---3---3---5---5---5---5---1---1---3---3---|

# solo intro/bridge 
E------------------------------------------------------------------|
B--10----------------------8---12------13--12--10------8-----------|
G----------------------------------------------------------9-------|
D------------------------------------------------------------------|
A------------------------------------------------------------------|
E------------------------------------------------------------------|

# verse 1
E------------------------------------------------------------------|
B------------------------------------------------------------------|
G------------------------------------------------------------------|
D----------------------------------7---7---7---7---3---3---5---5---|
A----------------------------------7---7---7---7---3---3---5---5---|
E----------------------------------5---5---5---5---1---1---3---3---|

Im düster'n Auge ...

[ Tab from: http://www.guitartabs.cc/tabs/k/kapitulation_bonn/weberlied_tab.html ]
# verse 2
E------------------------------------------------------------------|
B------------------------------------------------------------------|
G--5-------5-------5-------5-------5---4---2-------2-------2---5---|
D--5-------5-------5-------5-------5---4---2-------2-------2---5---|
A--3-------3-------3-------3-------3---2---0-------0-------0---3---|
E------------------------------------------------------------------|

Deutschland, wir weben dein Leichentuch

# Refrain
E------------------------------------------------------------------|
B------------------------------------------------------------------|
G--9-------9-------9-------2-------2-------2-------5-------5-------|
D--9-------9-------9-------2-------2-------2-------5-------5-------|
A--7-------7-------7-------0-------0-------0-------3-------3-------|
E------------------------------------------------------------------|


intro + solo - 
verse 1 (2x) - verse 2 (2x) - refrain - bridge + solo - 
verse 1 (2x) - verse 2 (2x) - refrain - bridge + solo - 
verse 1 (2x) - verse 2 (2x) - refrain - bridge + solo - 
verse 1 (2x) - verse 2 (2x) - refrain - refrain


Lyrics:
(Ursprünglich aus Heinrich Heines Gedicht "Die schlesischen Weber")

Im düster'n Auge keine Träne
sie sitzen am Webstuhl und fletschen die Zähne
Deutschland, wir weben dein Leichentuch
wir weben hinein den dreifachen Fluch

Wir weben, wir weben

Ein Fluch dem Gotte, zu dem wir gebeten
in Winterskälte und Hungersnöten.
Wir haben vergebens gehofft und geharrt,
man hat uns gefoppt und geäfft und genarrt.

Wir weben, wir weben

Ein Fluch dem König, dem König der Reichen,
den all das Elend nicht konnte erweichen
Der den letzten Groschen von uns erpresst
und uns wie Hunde erschießen lässt.

Wir weben, wir weben

Ein Fluch dem falschen Vaterlande, 
wo nur gedeien Schmach und Schande
wo jede Blume früh geknickt,
wo Fäulnis und Moder den wurm erquickt

Wir weben, wir weben,
wir weben, wir weben. 
Comments