Kansas - Carry On My Wayward Son Chords & Tabs

 

Carry On My Wayward Son Chords & Tabs

Kansas Chords & Tabs

Version: 2 Type: Tab 6 ratings
1 star 2 stars 3 stars 4 stars 5 stars
comments

Carry On My Wayward Son Tab

   
Carry On My Wayward Son


Some people have the chords in the totally wrong key
and made the main riff positioning easier.

Main Riff
E|---------------------|---------------------------|
B|---------------------|---------------------------|
G|---------------------|---------------------------|
D|-------------------  |---------------------------|
A|----- -3-3-------5---|-7---10--7p5--3--5-----5---|
E|-5-3-5-----5-3-5-----|--------------------3-----2|


Riff before piano part
E|--------------------------------------------------|
B|------12-12----------------------------14---12----|
G|------12-12----------------------------14---12----|
D|-22---12-12-------------5--------------14---12----|
A|-22------------------5-----5--5h7--7--------------|
E|-00----------5--5h7-------------------------------|

Piano Part...
Am, G, F, G
Am, G, F, G
Dm, C, Bb, C
Dm, C, G
[ Tab from: http://www.guitartabs.cc/tabs/k/kansas/carry_on_my_wayward_son_tab_ver_2.html ]
Am    C     G       
Carry on my wayward son
Am        C          G       
theyll be peace when you are done
Am       C     G        
lay your weary head to rest 
Am   
dont you cry no more

Riff Before The Solo:
E|----------------------------------------------------|
B|----------------------------------------------------|
G|-----------------------------------7---5------------|
D|--7--7p5------------------5---7---------------------|
A|--7-------7p5----------5----------------------------|
E|--5------------8p5--8-------------------------------|


E|----------------------------------------------------|
B|----------------------------------------------------|
G|----------------------------------7-----------------|
D|--7--7p5------------------5---7---------------------|
A|--7-------7p5----------5----------------------------|
E|--5------------8p5--8-------------------------------|



Enjoy...Jason Zeidman
Comments