Kansas - Carry On My Wayward Son Chords & Tabs

 

Carry On My Wayward Son Chords & Tabs

Kansas Chords & Tabs

Version: 1 Type: Bass Tab 0 ratings
1 star 2 stars 3 stars 4 stars 5 stars
comments

Carry On My Wayward Son Bass Tab

G------------------5-----------------------------------------
D------3------5--7--7-3-5--5---------------------------------
A-5-3-5--5-3-5------------3-2--------------------------------
E------------------------------------------------------------
                         Repeat

This is the verse part
[ Tab from: http://www.guitartabs.cc/tabs/k/kansas/carry_on_my_wayward_son_btab.html ]
G---------------------------0-2-0---0---3-3-2-0--2-0-0--3-3-2-5-0
D-0-0-0-0-2-3-2-0-2--0-0-0-3-----3-2------------3----------------
A----------------3-----------------------------------------------
E----------------------------------------------------------------
                         Repeat

Chorus ( i think) it didnt sound very accurate but try it out

                                                        these last 4 notes are pickups into 
G-0-0-0-3-3-1-1-3-0----0-0-0-3-3-0----0-0-0-3-3-1-1-3-0---0-0-  the first part
D----------------------------------3-----------------------3-2
A-------------------------------------------------------------
E-------------------------------------------------------------

Well try it 
You might like this version better than the other one.
Comments