Kane Hodder - The Child Of Prophecy Chords & Tabs

 

The Child Of Prophecy Chords & Tabs

Kane Hodder Chords & Tabs

Version: 1 Type: Bass Tab 0 ratings
1 star 2 stars 3 stars 4 stars 5 stars
comments

The Child Of Prophecy Bass Tab

Artist: Kane Hodder
Song: The Child Of Prophecy
Album: The Pleasure To Remain So Heartless
bass tab by ravaging


this song is easy, it's instrumental, and i find it very fun to play.

wait a while until the bass and guitars come in, play with a pick.

/ = slide up
\ = slide down

verse:
G--------------------------------------------------------------------------------------
D------------10-9----------------------------------------------------------------------
A-----------------10-----------10/12-10-8-10-----------7/8-7---7-----------7/8-7-------
E--8-8-8---8-----------8-8-8-------------------8-8-8---------8-----8-8-8---------8-8---

repeat that four times. since there's no singing, we'll just call this next thing the chorus anyway

chorus:
G--------------------------------------------------------------------------------------
D------------------10-7---10-7---8-----------------------------------------------------
A-----------------------8------8---8/10---10---10-10---10---10-------------------------
E--6---6---6-6---6-----------------------------------------------8---8---8-8---8---8---

repeat that 4 times

then play the verse twice again

then play this
[ Tab from: http://www.guitartabs.cc/tabs/k/kane_hodder/the_child_of_prophecy_btab.html ]
outro:
G------------------------------------------------------------------------------------------------------------------------------------------------------------
D------------------------------------------------------------------------------------------------------------------------------------------------------------
A------------------------------------------------------------------------------------------------------------------------------------------------------------
E--8---8-8-8-8-8---8-8-8-8-8---8-8-8-8-8---8-8-8-8-8---8-8-8-8-8---8-8-8-8-8---8-8-8-8-8---8-8-8-8-11---11-11-11-11-11---11-11-11\-3---3-3-3-3-3---3-3-3-3---

G------------------------------------------------------------------------------------------------------------------------------------------------------------
D------------------------------------------------------------------------------------------------------------------------------------------------------------
A------------------------------------------------------------------------------------------------------------------------------------------------------------
E--8---8-8-8-8-8---8-8-8-8-8---8-8-8-8-8---8-8-8-8-8---8-8-8-8-8---8-8-8-8-8---8-8-8-8-8---8-8-8-8-11---11-11-11-11-11---11-11-11\-3---3-3-3-3-3---3-3-3-3---

G------------------------------------------------------------
D------------------------------------------------------------
A------------------------------------------------------------
E--11---11-11-11-11-11---11-11-11\-3---3-3-3-3-3---3-3-3-3---

play that twice, then go to this

G-----------------------------------------
D-----------------------------------------
A-----------------------------------------
E--11---11-11-11-11-11---11-11-11-11-11--- etc. etc. until the end


any comments or questions?
chip_wood@comcast.net
Comments